Guitar Tabs for Tajdar E Haram - Atif Aslam Tabs

(/) Slide Up  (\) Slide Down  (h) Hammer On  (p) Pull Off  (b) Bend (r) Release (v) Vibrato (x) Muted

Tabs for Song : Tajdar E Haram

Tajdaar-e-haram Tajdaar-e-haram
E|--5--5-----5-----------5--5-----5-----------
B|--------8-----8--7--7--------8-----8--7--7--
G|--------------------------------------------
D|--------------------------------------------
A|--------------------------------------------
E|--------------------------------------------

Ho nigaah-e-karam
E|-----------7--9--10-7--9--5--5-----5-----
B|--7--7--8-----------------------8-----7--
G|-----------------------------------------
D|-----------------------------------------
A|-----------------------------------------
E|-----------------------------------------

Tajdaar-e-haram ho nigaah-e-karam
E|--5--5-----5--------------------7--9--10-7--9--5--
B|--------8-----8--7--7--7--7--8--------------------
G|--------------------------------------------------
D|--------------------------------------------------
A|--------------------------------------------------
E|--------------------------------------------------

Ham ghareebon ke din bhi 
E|--10-12-12/14-12p14-10-12----
B|--------------------------10-
G|-----------------------------
D|-----------------------------
A|-----------------------------
E|-----------------------------

Sanwar jaaenge
E|--10-10-10-9--10-9--7--8--7--5-----------
B|--------------------------------8--7--5--
G|-----------------------------------------
D|-----------------------------------------
A|-----------------------------------------
E|-----------------------------------------

Haami-ye be-kasaan
E|--5--5-----5-----------
B|--------8-----8--7--7--
G|-----------------------
D|-----------------------
A|-----------------------
E|-----------------------

Kya kahega jahaan
E|-----------7--9--10-7--9--5--5-----5-----
B|--7--7--8-----------------------8-----7--
G|-----------------------------------------
D|-----------------------------------------
A|-----------------------------------------
E|-----------------------------------------

Haami-ye be-kasaan kya kahega jahaan
E|--5--5-----5--------------------7--9--10-7--9--5--
B|--------8-----8--7--7--7--7--8--------------------
G|--------------------------------------------------
D|--------------------------------------------------
A|--------------------------------------------------
E|--------------------------------------------------

Aap ke dar se khaali 
E|--10-12-12/14-12p14-10-12----
B|--------------------------10-
G|-----------------------------
D|-----------------------------
A|-----------------------------
E|-----------------------------

Agar jaaenge
E|--10-10-10-9--10-9--7--8--7--5-----------
B|--------------------------------8--7--5--
G|-----------------------------------------
D|-----------------------------------------
A|-----------------------------------------
E|-----------------------------------------

Tajdaar-e-haram Tajdaar-e-haram
E|--5--5-----5-----------5--5--8--7--5--------
B|--------8-----8--7--7-----------------8--7--
G|--------------------------------------------
D|--------------------------------------------
A|--------------------------------------------
E|--------------------------------------------
tabs and chords, guitar tabs, music contests, music covers, songsterr, reverbnation, renditions, tabulature, bollywood chords, ultimate guitar, yousician, guitar lessons, torrins, fender, gibson, acoustic guitar, electric guitar, youtube covers, gootar, guitar tuner, A-Z tabs, 911 tabs