Guitar Tabs for Swim Club

(/) Slide Up  (\) Slide Down  (h) Hammer On  (p) Pull Off  (b) Bend (r) Release (v) Vibrato (x) Muted

Tabs for Song : Swim Club by Cave Singers
Capo on the 1st fret

This song is plucked with a very simple alternation of thumb, index, thumb, index.
However, he does some interesting things with hammers and pull-offs to make a very
cool sound.

Verses repeat these two measures throughout. The pull-off notes are a bit weird—you 
pull off the second fret on the D string only after picking the open B string

E|--------------------------------------------------------------------
B|-----3-----------------------0--------3--------------------0--------
G|--------------0-----0--------------------------0-----0--------------
D|------------------------0h-2p---0------------------------2p---0-----
A|---------0h2-----3------------------------0h2-----3-----------------
E|--3--------------------------------3-----------------------------3--

Chorus goes like this:
E|-----------------------------------------------------------------
B|------------7p0------------1p0------------1p0--------------------
G|-----0--------------0--------------0--------------------------0--
D|--------------------------------2-----2------------0h-4p---0-----
A|--7-----7--------2-----2-----------------------5--------5--------
E|-----------------------------------------------------------------

Repeat X 4

Except on the last repeat (when he says “Let’s ride”), play the final bit 
4 times through. 

NOTE: On this little riff in the chorus, the pull-offs are weird again. Pull off the 
4th fret on the D string AFTER plucking the 5th fret on the A string. On this
section, it’s extra weird because the 5th fret on A and the open D are the 
same note. However, playing it this way allows for a very smooth continuation
of the plucking pattern (thumb, index, thumb, index, etc.)
E|-----------------------------------------------------------------------------------
B|-----------------------------------------------------------------------------------
G|-----------------0--------------------0--------------------0--------------------0--
D|------0h-4p---0------------0h-4p---0------------0h-4p---0------------0h-4p---0-----
A|--5--------5-----------5--------5-----------5--------5-----------5--------5--------
E|-----------------------------------------------------------------------------------

Then go back into the verses.

Jeff Norris Collins
tabs and chords, guitar tabs, music transcription, music technology, deep learning, music information retrieval, transcribe into tabs & chords, chordify, music renditions, songsterr, reverbnation, tabulature, bollywood chords, ultimate guitar, yousician, guitar lessons, acoustic guitar, electric guitar, guitar tuner, 911 tabs