Guitar Tabs for Disappear - Club Kuru

(/) Slide Up  (\) Slide Down  (h) Hammer On  (p) Pull Off  (b) Bend (r) Release (v) Vibrato (x) Muted

Tabs for Song : Disappear
BPM : 200

     Come and rest your head on me      All you have might disappear 


E|-----7-----------------------------------------------------------------------
B|--------------10-------8--------6--------3--------3--------5--------5--------
G|--------9--------9--------5--------5--------0--------0--------2--------2-----
D|--10-------10-------7--------7--------2--------2--------3--------3-----------
A|-----------------------------------------------------------------------------
E|-----------------------------------------------------------------------------

Song lyrics here 
E|-----------------------------------------------------------------------------------------------------------------------------------------------------------------------------------------------------------------------------------------------------------------------1-----------------1--------
B|-----------1-----------------1-----------------1-----------------1-----------------------------------------------------------------------------------------1-----------------1-----------------1-----------------1-----------------0--------------------------------3-----3-----------3-----3-----
G|--------2-----2-----------2-----2-----------2-----2-----------2-----2--------------0-----------------0-----------------2-----------------2--------------0-----0-----------0-----0-----------2-----2-----------2-----2-----------0-----0-----------0--3--0--------2-----------2-----2-----------2--
D|-----2-----------2-----2-----------2-----2-----------2-----2-----------2--------2-----2-----------2-----2-----------3-----3-----------3-----3--------2-----------2-----2-----------2-----2-----------2-----2-----------2-----0-----------0-----0-----------0--0-----------------0-----------------
A|--0-----------------0--------------------------------------------------------2-----------2-----2-----------2-----3-----------3-----3-----------3--3-----------------3-----------------0-----------------0-----------------------------------------------------------------------------------------
E|--------------------------------------3-----------------3-----------------0-----------------0-----------------1-----------------1-----------------------------------------------------------------------------------------3-----------------3-----------------------------------------------------
Use manual mode to free up cursor. Paste any tab in acousterr tab maker and we'll play it !!!
E|-----------------------------------------1--------0--------0--------0-----
B|-----3--------3--------3--------3-----------0--------0--------1--------1--
G|--------1--------1--------2--------2--1--------1--------2--------2--------
D|--2--------2--------3--------3--------------------------------------------
A|--------------------------------------------------------------------------
E|--------------------------------------------------------------------------

E|-----7-----------------------------------------------------------------------------------------------------------1--------0--------0--------0-----
B|--------------10-------8--------6--------3--------3--------3--------3--------3--------3--------3--------3-----------0--------0--------1--------1--
G|--------9--------9--------5--------5--------1--------1--------2--------2--------1--------1--------2--------2--1--------1--------2--------2--------
D|--10-------10-------7--------7--------2--------2--------3--------3--------2--------2--------3--------3--------------------------------------------
A|--------------------------------------------------------------------------------------------------------------------------------------------------
E|--------------------------------------------------------------------------------------------------------------------------------------------------
tabs and chords, guitar tabs, music transcription, music technology, deep learning, music information retrieval, transcribe into tabs & chords, chordify, music renditions, songsterr, reverbnation, tabulature, bollywood chords, ultimate guitar, yousician, guitar lessons, acoustic guitar, electric guitar, guitar tuner, 911 tabs