Guitar Tabs for Sweet Creature - Harry Styles Tabs

(/) Slide Up  (\) Slide Down  (h) Hammer On  (p) Pull Off  (b) Bend (r) Release (v) Vibrato (x) Muted

Tabs for Song : Sweet Creature

created by Mana.si

intro:
E|-----------------------------------------------------------------------------------------------------
B|--0-----------0--5--3--0-----------0--5--3--0-----------0--5--3--0-----------0--0-----------0--------
G|--------0--------------------0--------------------0--------------------0--------------0--------------
D|-----0-----0--------------0-----0--------------0-----0--------------0-----0--------0-----0-----------
A|-----------------3--2-----------------3--2-----------------3--2--------------------------------------
E|--3--------------------3--------------------3--------------------3--------------3--------------------

verse 1:
E|-----------------------------------------------------4-----0-----4--2-----------2-----------------------------------------------------------------------------------4-----0-----4--2-----------2-----------------------------------
B|--0-----------0--5--3--0-----------0--0-----------0-----0-----0-----------3--------5-----------5--0-----------0--0-----------0--5--3--0-----------0--0-----------0-----0-----0-----------3--------5-----------5--0-----------0-----
G|--------0--------------------0--------------0--------------------------2-----2-----------5--------------0--------------0--------------------0--------------0--------------------------2-----2-----------5--------------0-----------
D|-----0-----0--------------0-----0--------0-----0-----3--------------0-----------------5-----5--------0-----0--------0-----0--------------0-----0--------0-----0-----3--------------0-----------------5-----5--------0-----0--------
A|-----------------3--2--------------------------------------------------------------3--------------------------------------------3--2--------------------------------------------------------------3--------------------------------
E|--3--------------------3--------------3-----------------------------------------------------------3--------------3--------------------3--------------3-----------------------------------------------------------3-----------------

pre-chorus:
E|--------------------------------------------------0-----------------------------3-----------------------------0--------------------------------------------------------------0-----------------------------3--------------2--------x--------
B|--1-----------1--1------------1r0--0-----------0--------------0--0-----------0--------------0--3-----------3--------------3--1-----------1--1------------1r0--0-----------0--------------0--0-----------0--------------0--3--------x--------
G|--------2--------------2-----------------0--------------0--------------0--------------0--------------2--------------2--------------2--------------2-----------------0--------------0--------------0--------------0--------2--------x--------
D|-----2-----2--------2-----2-----------2-----2--------2-----2--------0-----0--------0-----0--------0-----0--------0-----0--------2-----2--------2-----2-----------2-----2--------2-----2--------0-----0--------0-----0-----------------------
A|--0--------------0-----------------2-----------------------------------------------------------0--------------0--------------0--------------0-----------------2-----------------------------------------------------------------------------
E|--------------------------------------------------0--------------3--------------3--------------------------------------------------------------------------------------------0--------------3--------------3--------------------------------

chorus:
E|-----------------------------------------------------------------------2-----------2--2-----------2--2-----------2--2-----------2-----------------------------------------------------------------------------------------------2-----------2--2-----------2--2-----
B|--0-----------0--5--3--0-----------0--5--3--0-----------0--5--3--1--0--------1--------------1--------------1--------------1--------0-----------0--5--3--0-----------0--5--3--0-----------0--5--3--1-----------1--0-----------0--------1--------------1--------1-----
G|--------0--------------------0--------------------0-----------------------2-----2--------2-----2--------2-----2--------2-----2-----------0--------------------0--------------------0--------------------2--------------0-----------2-----2--------2-----2-----2-----
D|-----0-----0--------------0-----0--------------0-----0-----------------0--------------0--------------0--------------0-----------------0-----0--------------0-----0--------------0-----0--------------0-----0--------0-----0-----0--------------0--------------------
A|-----------------3--2-----------------3--2-----------------3--2--0--------------------------------------------------------------------------------3--2-----------------3--2-----------------3--2--0-----------------------------------------------------------------
E|--3--------------------3--------------------3-----------------------3--------------------------------------------------------------3--------------------3--------------------3-----------------------------------3--------------------------------------------------

intro:
E|-----------------------------------------------------
B|--0-----------0--5--3--0-----------0--0-----------0--
G|--------0--------------------0--------------0--------
D|-----0-----0--------------0-----0--------0-----0-----
A|-----------------3--2--------------------------------
E|--3--------------------3--------------3--------------

verse 2:
E|-----------------------------------------------------4-----0-----4--2-----------2-----------------------------------------------------------------------------------4-----0-----4--2-----------2-----------------------------------
B|--0-----------0--5--3--0-----------0--0-----------0-----0-----0-----------3--------5-----------5--0-----------0--0-----------0--5--3--0-----------0--0-----------0-----0-----0-----------3--------5-----------5--0-----------0-----
G|--------0--------------------0--------------0--------------------------2-----2-----------5--------------0--------------0--------------------0--------------0--------------------------2-----2-----------5--------------0-----------
D|-----0-----0--------------0-----0--------0-----0-----3--------------0-----------------5-----5--------0-----0--------0-----0--------------0-----0--------0-----0-----3--------------0-----------------5-----5--------0-----0--------
A|-----------------3--2--------------------------------------------------------------3--------------------------------------------3--2--------------------------------------------------------------3--------------------------------
E|--3--------------------3--------------3-----------------------------------------------------------3--------------3--------------------3--------------3-----------------------------------------------------------3-----------------

pre-chorus:
E|--------------------------------------------------0-----------------------------3-----------------------------0--------------------------------------------------------------0-----------------------------3--------------2--------x-----
B|--1-----------1--1------------1r0--0-----------0--------------0--0-----------0--------------0--3-----------3--------------3--1-----------1--1------------1r0--0-----------0--------------0--0-----------0--------------0--3--------x-----
G|--------2--------------2-----------------0--------------0--------------0--------------0--------------2--------------2--------------2--------------2-----------------0--------------0--------------0--------------0--------2--------x-----
D|-----2-----2--------2-----2-----------2-----2--------2-----2--------0-----0--------0-----0--------0-----0--------0-----0--------2-----2--------2-----2-----------2-----2--------2-----2--------0-----0--------0-----0--------------------
A|--0--------------0-----------------2-----------------------------------------------------------0--------------0--------------0--------------0-----------------2--------------------------------------------------------------------------
E|--------------------------------------------------0--------------3--------------3--------------------------------------------------------------------------------------------0--------------3--------------3-----------------------------

chorus:
E|-----------------------------------------------------------------------2-----------2--2-----------2--2-----------2--2-----------2-----------------------------------------------------------------------------------------------2-----------2--2-----------2--2-----
B|--0-----------0--5--3--0-----------0--5--3--0-----------0--5--3--1--0--------1--------------1--------------1--------------1--------0-----------0--5--3--0-----------0--5--3--0-----------0--5--3--1-----------1--0-----------0--------1--------------1--------1-----
G|--------0--------------------0--------------------0-----------------------2-----2--------2-----2--------2-----2--------2-----2-----------0--------------------0--------------------0--------------------2--------------0-----------2-----2--------2-----2-----2-----
D|-----0-----0--------------0-----0--------------0-----0-----------------0--------------0--------------0--------------0-----------------0-----0--------------0-----0--------------0-----0--------------0-----0--------0-----0-----0--------------0--------------------
A|-----------------3--2-----------------3--2-----------------3--2--0--------------------------------------------------------------------------------3--2-----------------3--2-----------------3--2--0-----------------------------------------------------------------
E|--3--------------------3--------------------3-----------------------3--------------------------------------------------------------3--------------------3--------------------3-----------------------------------3--------------------------------------------------

bridge:
E|--------------------------------------------------------------------------------------------------------------------------------------------------------------------------------------------------
B|-----------------0--------------------------0--------------------0--------------------------0--------------------0--------------------------0--------------------0--------------------------0-----
G|--0-----------0--------0-----0-----------0--------0-----------0--------0-----0-----------0--------0-----------0--------0-----0-----------0--------0-----------0--------0-----0-----------0--------
D|--------0--------------------------0--------------------0--------------------------0--------------------0--------------------------0--------------------0--------------------------0--------------
A|-----2-----2--------------------2-----2--------------2-----2--------------------2-----2--------------2-----2--------------------2-----2--------------2-----2--------------------2-----2-----------
E|--3--------------3-----3-----3--------------3-----3--------------3-----3-----3--------------3-----3--------------3-----3-----3--------------3-----3--------------3-----3-----3--------------3-----

pre-chorus:
E|--------------------------------------------------0-----------------------------3-----------------------------0--------------------------------------------------------------0-----------------------------3--------------2--------x-----
B|--1-----------1--1------------1r0--0-----------0--------------0--0-----------0--------------0--3-----------3--------------3--1-----------1--1------------1r0--0-----------0--------------0--0-----------0--------------0--3--------x-----
G|--------2--------------2-----------------0--------------0--------------0--------------0--------------2--------------2--------------2--------------2-----------------0--------------0--------------0--------------0--------2--------x-----
D|-----2-----2--------2-----2-----------2-----2--------2-----2--------0-----0--------0-----0--------0-----0--------0-----0--------2-----2--------2-----2-----------2-----2--------2-----2--------0-----0--------0-----0--------------------
A|--0--------------0-----------------2-----------------------------------------------------------0--------------0--------------0--------------0-----------------2--------------------------------------------------------------------------
E|--------------------------------------------------0--------------3--------------3--------------------------------------------------------------------------------------------0--------------3--------------3-----------------------------

chorus:
E|-----------------------------------------------------------------------2-----------2--2-----------2--2-----------2--2-----------2-----------------------------------------------------------------------------------------------2-----------2--2-----------2--2--------------------------------------2-----------2--2-----------2--2-----------
B|--0-----------0--5--3--0-----------0--5--3--0-----------0--5--3--1--0--------1--------------1--------------1--------------1--------0-----------0--5--3--0-----------0--5--3--0-----------0--5--3--1-----------1--0-----------0--------1--------------1--------1-----------0-----------0--5--3--1--0--------1--------------1--------1-----------
G|--------0--------------------0--------------------0-----------------------2-----2--------2-----2--------2-----2--------2-----2-----------0--------------------0--------------------0--------------------2--------------0-----------2-----2--------2-----2-----2-----------------0-----------------------2-----2--------2-----2-----2-----------
D|-----0-----0--------------0-----0--------------0-----0-----------------0--------------0--------------0--------------0-----------------0-----0--------------0-----0--------------0-----0--------------0-----0--------0-----0-----0--------------0-----------------------------0-----0-----------------0--------------0--------------------------
A|-----------------3--2-----------------3--2-----------------3--2--0--------------------------------------------------------------------------------3--2-----------------3--2-----------------3--2--0--------------------------------------------------------------------------------------3--2--0-----------------------------------------------
E|--3--------------------3--------------------3-----------------------3--------------------------------------------------------------3--------------------3--------------------3-----------------------------------3--------------------------------------------------------3-----------------------3--------------------------------------------

outro:
E|-----------------------------------------------------------------------------------------------
B|-----------------0--------------------------0--------------------0--------------------------0--
G|--0-----------0--------0-----0-----------0--------0-----------0--------0-----0-----------0-----
D|--------0--------------------------0--------------------0--------------------------0-----------
A|-----2-----2--------------------2-----2--------------2-----2--------------------2-----2--------
E|--3--------------3-----3-----3--------------3-----3--------------3-----3-----3--------------3--

		

Now supports capo and sound effects for vibrato/pull-off/hammer/bends/mutes etc !!! Checkout help section
tabs and chords, guitar tabs, music contests, music covers, songsterr, reverbnation, renditions, tabulature, bollywood chords, ultimate guitar, yousician, guitar lessons, torrins, fender, gibson, acoustic guitar, electric guitar, youtube covers, gootar, guitar tuner, A-Z tabs, 911 tabs