Guitar Tabs for Sweet

(/) Slide Up  (\) Slide Down  (h) Hammer On  (p) Pull Off  (b) Bend (r) Release (v) Vibrato (x) Muted

Tabs for Song : 
BPM : 256

Song lyrics here 
D|-----------------------------------------------------------------------------------------6--------7--6--9--12-7--11-14-
A|-----------------------------------------------------------------------7--------9-----7--------9-----------------------
F|--------------------------------------------6--------8-----6--9-----8-----6--9-----8--------9--------------------------
C|-----------------6--------8-----6--9-----8-----6--9-----8--------9-----------------------------------------------------
G|-----6--9-----7-----6--9-----7--------9--------------------------------------------------------------------------------
D|--7--------9-----------------------------------------------------------------------------------------------------------

Song lyrics here 
D|--2--------4--------6--------0--------2--------4--------2--------------------------------------------------------------------------------------------------------------3--
A|--4--------5--------7--------0--------2--------4--------4-----------------------------------------------------------------7-----------9-----------------------7--------3--
F|--4--------6--------8--------1--------3--------4--------4--------------------------------------------------------------8-----8--6--9-----9-----6--9--6-----8-----8-----4--
C|--4--------6--------8--------2--------4--------6--------4--------------------------6--------------------------------9-----------------------8-----------9--------------5--
G|--2--------4--------6--------2--------4--------6--------2-----------6--9--6-----7-----7--------7--------6--9--6--------------------------------------------------------5--
D|-----------------------------0--------2--------4-----------------7-----------9-----------6--9-----9--7-----------------------------------------------------------------3--

D|--------------15----14----------------15----14----------------15----14----------------15----14----------------15----14----------------15----14----------------15----14----------------15----14----------------15----14----------------15----14----------------15----14----------------15----14----------------15----14----------------15----14----12----------12----14----15----14----12-------
A|-----15----------------------15----------------------15----------------------15----------------------15----------------------15----------------------15----------------------15----------------------15----------------------15----------------------15----------------------15----------------------15----------------------15-------------------------15----------------------------------15-
F|--------14-12----14----14-------14-12----14----14-------14-12----14----14-------14-12----14----14-12----14-12----14----14-12----14-12----14----14-------14-12----14----14-------14-12----14----14-------14-12----14----14-------14-12----14----14-------14-12----14----14-------14-12----14----14-12----14-12----14----14-12----14-12----14----14----14----14----14----14----14----14----14----
C|--12----------------------12----------------------14----------------------14----------------------------------------------------------------------12----------------------12----------------------12----------------------12----------------------14----------------------14-------------------------------------------------------------------------------------------------------------------
G|-----------------------------------------------------------------------------------------------------------------------------------------------------------------------------------------------------------------------------------------------------------------------------------------------------------------------------------------------------------------------------------------------
D|-----------------------------------------------------------------------------------------------------------------------------------------------------------------------------------------------------------------------------------------------------------------------------------------------------------------------------------------------------------------------------------------------



Use manual mode to free up cursor. Paste any tab in acousterr tab maker and we'll play it !!!
tabs and chords, guitar tabs, music transcription, music technology, deep learning, music information retrieval, transcribe into tabs & chords, chordify, music renditions, songsterr, reverbnation, tabulature, bollywood chords, ultimate guitar, yousician, guitar lessons, acoustic guitar, electric guitar, guitar tuner, 911 tabs