Bass Tabs for Superstition - Stevie Wonder

(/) Slide Up  (\) Slide Down  (h) Hammer On  (p) Pull Off  (b) Bend (r) Release (v) Vibrato (x) Muted

Tabs for Song : 

   (1) Very superstitious...     (2)
G|--------------------------------------------------------------------------------------
D|-----------------------------------------------------------------------8--6-----------
A|--------------------------------6--6--6--------4-----4--6--------6--6--------6--4--6--
E|-----------------------------------------6--6-----6-----------------------------------
B|--4--4--4-----------------------------------------------------------------------------

   (2)  WHen you believe in things....
G|-----------------------------------------
D|-----------------------------------------
A|-----------------------------------------
E|--6--7--6--4-----4-----------------------
B|--------------------------------------4--

In the end keep (1) while brass does (3) x2 and then repeat (2) x2 and stop !
tabs and chords, guitar tabs, music transcription, music technology, deep learning, music information retrieval, transcribe into tabs & chords, chordify, music renditions, songsterr, reverbnation, tabulature, bollywood chords, ultimate guitar, yousician, guitar lessons, acoustic guitar, electric guitar, guitar tuner, 911 tabs