Bass Tabs for Superstition (stevie Wonder)

(/) Slide Up  (\) Slide Down  (h) Hammer On  (p) Pull Off  (b) Bend (r) Release (v) Vibrato (x) Muted

5-String Bass Tabs for "Superstition" by Stevie Wonder

A few rest bars, then an intro pickup:
G|-----------------------------
D|-----------------------------
A|--------------0--------------
E|-----------3--------0-----(0)
B|-----------------------3-----

VERSE:  (repeated)
G|--------------------------------------------------------
D|--------------------------------------------------------
A|--------------------------------------------------------
E|--0-----0-----0-----0-----0-----0-----0---0h3--0-----(0)
B|--------------------------------------------------3-----

CHORUS:
G|--------------------------------------
D|--------------------------------------
A|-----7--7--------------5--------5--7--
E|--0-----------5--6--7--------7--------
B|--------------------------------------

G|-----------------------------0-----------
D|-----------0--------0---7h9--------------
A|--------7-----7-----------------7--------
E|-----0-----------------------------7--(0)
B|-----------------------------------------

G|-----------------------------------------------------------------
D|-----------------------------------------------------------------
A|-----------------------------------------------------------------
E|--7------7h8------6h7------5h6-----5--------------7--7--7--7-----
B|-----------------------------------------------------------------

G|-----
D|-----
A|-----
E|-----
B|-----

Use manual mode to free up cursor. Paste any tab in acousterr tab maker and we'll play it !!!
tabs and chords, guitar tabs, music transcription, music technology, deep learning, music information retrieval, transcribe into tabs & chords, chordify, music renditions, songsterr, reverbnation, tabulature, bollywood chords, ultimate guitar, yousician, guitar lessons, acoustic guitar, electric guitar, guitar tuner, 911 tabs