Mandolin Tabs for Stonehenge Spinal Tap Mandolin Solo

Tabs for Song : 
BPM : 200

E|--------------------------
A|--0-----0-----0-----0-----
D|--0-----0-----0-----0-----
G|--------------------------
 
E|--------------------------------0-----------------------------------------0--
A|-----------------0--0--5--4--5-----5--0--2--3--3--5---3p2--0--3--2--3--5-----
D|--0--2--4--4--5--------------------------------------------------------------
G|-----------------------------------------------------------------------------

E|--------------------------------0--------------------------------------------
A|-----------------0--0--5--4--5-----5--0--2--3--5---3p2---3p2-----------------
D|--0--2--4--4--5-----------------------------------------------5---3p2-----0--
G|-----------------------------------------------------------------------5-----

E|--2--3--5--5--3--3--2--------------------0--2--3--5--3--2--0--2--0--------
A|-----------------------5--3---0h2--3--5-----------------------------5--0--
D|--------------------------------------------------------------------------
G|--------------------------------------------------------------------------

E|--2--3--5--5--3--3--2-----------------------------------------------
A|-----------------------5--3---0h2--3--5--3--2---3p2-----------------
D|-----------------------------------------------------5---3p2-----0--
G|--------------------------------------------------------------5-----
tabs and chords, guitar tabs, music transcription, music technology, deep learning, music information retrieval, transcribe into tabs & chords, chordify, music renditions, songsterr, reverbnation, tabulature, bollywood chords, ultimate guitar, yousician, guitar lessons, acoustic guitar, electric guitar, guitar tuner, 911 tabs