Bass Tabs for Sunday School

(/) Slide Up  (\) Slide Down  (h) Hammer On  (p) Pull Off  (b) Bend (r) Release (v) Vibrato (x) Muted

Tabs for Song : Sunday School
BPM : 81,94,100,96/130/96

Intro
G|-----------------------------------------------
D|-----------------------------------------------
A|-----------------------------11-11-11-9--9--9--
D|--0--0-----0--0-----0--0-----------------------

And it always seems to be...
G|-----------------x-----------------------------------
D|-----------------x-----------------------------------
A|-----------------x--7--7--7--7--4--4-----------------
D|--5--5--6--6--6--x--------------------5--5--6--6--6--
but you are always on myyyy miiindd
G|-----------------------------------------------------------
D|-----------------------------------------------------------
A|-----7--7--7--7--4--4--------------------------------------
D|-----------------------5--5--6--6--6--6--6--6--6--6--6--6--
I will do this again and again...
G|--------------------------------------------------------
D|--------------------------------------------7--7--6--6--
A|--------------7--7--7--7--7-----7--7--7--7--------------
D|--0--0--0--0--------------------------------------------
You fight word with words...
G|-----------------------------------------------------------------------------------------------------
D|--------------------7-----------------------9--7---------------9/11\9--9--9------------9/11\9--9--9--
A|-----------7--8--9-----9-----------7--8--9-----------7--7--7-----------------7--7--7-----------------
D|--0--0--0-----------------0--0--0--------------------------------------------------------------------
Breakdown
G|-----------------------------x--
D|-----------------------------x--
A|-----------------------------x--
D|--0--0--7--7--7--9--9--12-12-x--
(Start of Gay bit) I want never ending sunday mornings... 
G|-----------------------------------
D|-----------------------------------
A|---2/14-----2/14----14-12-12-12-11-
D|-----------------------------------
(Build up) I wanna write something im proud of i wanna not ** hate it...
G|-----------------------------------
D|-----------------------------------
A|--14-14-14-14----2--2--2-----------
D|--------------------------0--0--0--
Bit after (let it ring)
G|--------------------------
D|--------------------------
A|--------------------------
D|--0--0-----0--0--0--0--0--

G|-----------------------------------------------------------------
D|-----------------------------------------------------------------
A|--7--7--7--7---7/9--9---9\7--7--7--14-14-14-14-14----------------
D|--------------------------------------------------0--0--0--0--0--

G|--------------------x--
D|--------------------x--
A|--7-----7-----7---7\x--
D|-----0-----0--------x--







Paste any tab in acousterr's tab maker and we'll play it !!!
Now supports capo and sound effects for vibrato/pull-off/hammer/bends/mutes etc !!! Checkout help section
tabs and chords, guitar tabs, music transcription, music technology, deep learning, music information retrieval, transcribe into tabs & chords, chordify, music renditions, songsterr, reverbnation, tabulature, bollywood chords, ultimate guitar, yousician, guitar lessons, acoustic guitar, electric guitar, guitar tuner, 911 tabs