Bass Tabs for Art School

(/) Slide Up  (\) Slide Down  (h) Hammer On  (p) Pull Off  (b) Bend (r) Release (v) Vibrato (x) Muted

Tabs for Song : 
BPM : 160

Song lyrics here 
G|--------------------------------------------------
D|-----------8--------------------------------------
A|-----6--9-----9-----------------------------------
E|--7--------------2--3--4--4--4--4--4--4--3--3--3--

Song lyrics here 
G|----------------------------------------
D|-----------8-----------------------------
A|-----6--9-----9--------------------------
E|--7--------------2--3--4--------3--3--3--

G|--------------------------------------------------------------------------------------
D|--------------------------------------------------------------------------------------
A|--------7--7--7--7--7--7--7--7--7--7--7--7--------------------------------------------
E|--7-----------------------------------------7-----4--4--4--4--4--4--4--4--4--4--4--4--

G|--------------------------------------------------------------------------------------
D|--------------------------------------------------------------------------------------
A|--------------------------------------------------------------------------------------
E|--0-----4--4--4--4--4--4--4--4--4--4--4--4--0-----4--4--4--4--4--4--4--4--4--4--4--4--

G|--------------------------------------------------
D|--------------------------------------------------
A|--------------------------------------------------
E|--5--5--5--5--5--5--5--5--5--5--5--5--5--5--5--5--

G|--------------------------------------------------------------------------------------
D|--------------------------------------------------------------------------------------
A|--------7--7--7--7--7--7--7--7--7--7--7--7--------------------------------------------
E|--7-----------------------------------------7-----4--4--4--4--4--4--4--4--4--4--4--4--

G|--------------------------------------------------------------------------------------
D|--------------------------------------------------------------------------------------
A|--------------------------------------------------------------------------------------
E|--0-----4--4--4--4--4--4--4--4--4--4--4--4--0-----4--4--4--4--4--4--4--4--4--4--4--4--

G|--------------------------------------------------
D|-----------8--------------------------------------
A|-----6--9-----9-----------------------------------
E|--7--------------2--3--4--4--4--4--4--4--3--3--3--

G|-----------------------------------------
D|-----------8-----------------------------
A|-----6--9-----9--------------------------
E|--7--------------2--3--4--------3--3--3--

G|-----------------------------------------------------------------------------------
D|-----------------------------------------------------------------------------------
A|-----------------------------------------------------------------------------------
E|--0--0--0--3-----3--3--3--3--3--3--3--3--3-----0--0--0--3-----3--3--3--3--3--3--3--

G|--------------------------------------------------------------------------------------
D|--------------------------------------------------------------------------------------
A|--------7-----------------------------------------------------------------------------
E|--7-----------------------------------------7-----4-----------------------------------

G|--------------------------------------------------------------------------------------
D|--------------------------------------------------------------------------------------
A|--------7------8/9--7---6/-7\6--------------------------------------------------------
E|--7-----------------------------7-----7-----4-----------------------------------------

G|--------------------------------------------------------------------------------------
D|--------------------------------------------------------------------------------------
A|--------------------------------------------------------------------------------------
E|--0-----4-----------------------------------0-----4-----------------------------------

G|-----------------------------------------
D|-----------8-----------------------------
A|-----6--9-----9--------------------------
E|--7--------------2--3--4--------3--3--3--

G|--------------------------------------------------------------------------------------
D|--------------------------------------------------------------------------------------
A|--------7--7--7--7--7--7--7--7--7--7--7--7--------------------------------------------
E|--7-----------------------------------------7-----4--4--4--4--4--4--4--4--4--4--4--4--

G|--------------------------------------------------------------------------------------
D|--------------------------------------------------------------------------------------
A|--------------------------------------------------------------------------------------
E|--0-----4--4--4--4--4--4--4--4--4--4--4--4--0-----4--4--4--4--4--4--4--4--4--4--4--4--

G|--------------------------------------------------
D|-----------8--------------------------------------
A|-----6--9-----9-----------------------------------
E|--7--------------2--3--4--4--4--4--4--4--3--3--3--

Song lyrics here 
G|--------------------------
D|-----------8--------------
A|-----6--9-----9-----------
E|--7--------------2--3--4--

G|--------------------------------------------------------------------
D|--------------------------------------------------------------------
A|-----------------------6--------------------------------------------
E|--7-----------------------------------------4--------------------4--

G|-----------------------------------------------------------------------------------------------
D|-----------------------------------------------------------------------------------------------
A|--------------------------6--6--6--6--6--6--6--------------------------------------------------
E|--7--7--7--7--7--7--7--7-----------------------6--4--4--4--4--4--4--4--4--4--4--4--4--4--4--4--






Use manual mode to free up cursor. Paste any tab in acousterr tab maker and we'll play it !!!
tabs and chords, guitar tabs, music transcription, music technology, deep learning, music information retrieval, transcribe into tabs & chords, chordify, music renditions, songsterr, reverbnation, tabulature, bollywood chords, ultimate guitar, yousician, guitar lessons, acoustic guitar, electric guitar, guitar tuner, 911 tabs