Guitar Tabs for Sukoon mila

Tabs for Song : Sukoon Mila

mila hoon jo ab tum se
E|--------------------------------
B|-----3--2--0--------0--0--2-----
G|-----------------2--------------
D|--2-----------------------------
A|--------------------------------
E|--------------------------------

hai dil ko mere kasam se
E|--------------------------------
B|-----2--0-----------------0-----
G|-----------2--2--1--2--2--------
D|--2-----------------------------
A|--------------------------------
E|--------------------------------

sokoon mila
E|--------------------------
B|--------0-----------------
G|--2--2-----2--2-----------
D|-----------------2--4-----
A|--------------------------
E|--------------------------

sukoon mila
E|-----------------------------------
B|--------------0--0-----0--2--0-----
G|-----1--2--2--------2--------------
D|--4--------------------------------
A|-----------------------------------
E|-----------------------------------

tujhe hai paaya rab se
E|--------------------------------
B|-----3--2--0--------0--0--2-----
G|-----------------2--------------
D|--2-----------------------------
A|--------------------------------
E|--------------------------------

hai dil ko mere kasam se
E|--------------------------------
B|-----2--0-----------------0-----
G|-----------2--2--1--2--2--------
D|--2-----------------------------
A|--------------------------------
E|--------------------------------

sukoon mila
E|--------------------------
B|--------0-----------------
G|--2--2-----2--2-----------
D|-----------------2--4-----
A|--------------------------
E|--------------------------

sukoon milaa
E|-----------------------------------
B|--------------0--0-----0--2--0-----
G|-----1--2--2--------2--------------
D|--4--------------------------------
A|-----------------------------------
E|-----------------------------------
tabs and chords, guitar tabs, music transcription, music technology, deep learning, music information retrieval, transcribe into tabs & chords, chordify, music renditions, songsterr, reverbnation, tabulature, bollywood chords, ultimate guitar, yousician, guitar lessons, acoustic guitar, electric guitar, guitar tuner, 911 tabs