Guitar Tabs for Grace On Top Of Grace (key G)

(/) Slide Up  (\) Slide Down  (h) Hammer On  (p) Pull Off  (b) Bend (r) Release (v) Vibrato (x) Muted

Tabs for Song : Grace on top of grace 

Intro:
E|--10-10-10-12-12-12-10-10----------
B|--------------------------12v10v8--
G|-----------------------------------
D|-----------------------------------
A|-----------------------------------
E|-----------------------------------

Verse:
E|--10h12----
B|--------10-
G|-----------
D|-----------
A|-----------
E|-----------

Pre-chorus:
E|-----------------------------------------------------------------------
B|-----------------------------------------------------------------------
G|-----------------------------------------------------------------------
D|--5--7--7--9-----9--10-10----9--------5--7--7--------10-9--12-14----17-
A|-----------------------------------------------14----------------------
E|-----------------------------------------------------------------------

How sweet the sound:
E|-----------------------------------------------------------
B|--3--8--10-12-10h12-8--5--3-----3--8--10-12-10h12-------10-
G|--------------------------------------------------12-9-----
D|-----------------------------------------------------------
A|-----------------------------------------------------------
E|-----------------------------------------------------------


-------------------

Paste any tab in acousterr's tab maker and we'll play it !!!
Now supports capo and sound effects for vibrato/pull-off/hammer/bends/mutes etc !!! Checkout help section
tabs and chords, guitar tabs, music contests, music covers, songsterr, reverbnation, renditions, tabulature, bollywood chords, ultimate guitar, yousician, guitar lessons, torrins, fender, gibson, acoustic guitar, electric guitar, youtube covers, gootar, guitar tuner, A-Z tabs, 911 tabs