Guitar Tabs for Suara Ku Berharap Solo

(/) Slide Up  (\) Slide Down  (h) Hammer On  (p) Pull Off  (b) Bend (r) Release (v) Vibrato (x) Muted

Tabs for Song : 

Song lyrics here
E|-----------------------------------------------------------------------------5--------------
B|-----------------------------------------------------------------5---7p5--7---------5h7--5--
G|--------7--6--6--4--4--------4-----------------------------4--7-----------------------------
D|---7h9--------------------4-----4--7------7\9--5------5h7-----------------------------------
A|--------------------------------------------------------------------------------------------
E|--------------------------------------------------------------------------------------------

Song lyrics here
E|--------------------------------------------10-10-9--------7--9--10----9--10-12----
B|---5h7--5--------8--7--8--7--8--7--8--10-8-----------8--------------------------12-
G|-----------7-----------------------------------------------------------------------
D|-----------------------------------------------------------------------------------
A|-----------------------------------------------------------------------------------
E|-----------------------------------------------------------------------------------

Paste any tab in acousterr's tab maker and we'll play it !!!
Now supports capo and sound effects for vibrato/pull-off/hammer/bends/mutes etc !!! Checkout help section
tabs and chords, guitar tabs, music transcription, music technology, deep learning, music information retrieval, transcribe into tabs & chords, chordify, music renditions, songsterr, reverbnation, tabulature, bollywood chords, ultimate guitar, yousician, guitar lessons, acoustic guitar, electric guitar, guitar tuner, 911 tabs