Guitar Tabs for Dari Jauh Ku Pohon Maaf

(/) Slide Up  (\) Slide Down  (h) Hammer On  (p) Pull Off  (b) Bend (r) Release (v) Vibrato (x) Muted

Tabs for Song : 

Song lyrics here
E|-----------------------------------------------------------------3--5--6--
B|--------6-----5--------5--------------------------------3--5--6-----------
G|-----7-----------7--5-----7--5-----7---5p7---3p5--2-----------------------
D|--7-----------------------------------------------------------------------
A|--------------------------------------------------------------------------
E|--------------------------------------------------------------------------

E|--5--------5--------------------------
B|-----8--6-----8--5-----6---5p6--5-----
G|-----------------------------------7--
D|--------------------------------------
A|--------------------------------------
E|--------------------------------------

Song lyrics here
E|-----5-----------------------------------------------
B|--3-----6--5--6-----5--3--------------3--------------
G|--------------------------3-----3--5-----3--5--3--2--
D|-----------------------------------------------------
A|-----------------------------------------------------
E|-----------------------------------------------------

E|-----5-----------3--------------------
B|--3-----6--5--6-----5--6------6p5-----
G|-----------------------------------7--
D|--------------------------------------
A|--------------------------------------
E|--------------------------------------

Paste any tab in acousterr's tab maker and we'll play it !!!
Now supports capo and sound effects for vibrato/pull-off/hammer/bends/mutes etc !!! Checkout help section
tabs and chords, guitar tabs, music transcription, music technology, deep learning, music information retrieval, transcribe into tabs & chords, chordify, music renditions, songsterr, reverbnation, tabulature, bollywood chords, ultimate guitar, yousician, guitar lessons, acoustic guitar, electric guitar, guitar tuner, 911 tabs