Guitar Tabs for Stitches

(/) Slide Up  (\) Slide Down  (h) Hammer On  (p) Pull Off  (b) Bend (r) Release (v) Vibrato (x) Muted

Tabs for Song : 

Song lyriccs here::

Song lyrics here

-------------------------------------------------------------------------------
                             Stitches - Shawn Mendes
-------------------------------------------------------------------------------
Tabbed by: Amanda Yeo
E-mail: amandaysn@hotmail.com

Capo 1st Fret

Tuning: Standard

[Intro] (Repeated twice)

e|------------------------------------------------------------------------------------|
B|--------1-------------------3-------------------1-------------------1---------------|
G|----0---------0---0-----0---------0---0-----0---------0---0-----0---------0---0-----|
D|------------------------------------------------------------------------------------| 
A|--0---0-----0---0-------------------------3---3-----3---3---------------------------|
E|----------------------3---3-----3---3-------------------------1---1-----1---1-------|

[Verse 1](Same as Intro)

e|------------------------------------------------------------------------------------|
B|--------1-------------------3-------------------1-------------------1---------------|
G|----0---------0---0-----0---------0---0-----0---------0---0-----0---------0---0-----|
D|------------------------------------------------------------------------------------| 
A|--0---0-----0---0-------------------------3---3-----3---3---------------------------|
E|----------------------3---3-----3---3-------------------------1---1-----1---1-------|

[Pre chorus]

e|------------------------------------------------------------------------------------|
B|--------1---------1---------3---------3---------1-------1----------3---------3------|
G|----0---------0---------0---------0---------0-------0----------0---------0----------|
D|------------------------------------------------------------------------------------|
A|------------------------------------------0---0---0---0-----------------------------|
E|--1---1-----1---1-----3---3-----3---3-------------------------3---3-----3---3-------|

e|--------------------------------------------0------------------------------|
B|--------1---------1---------3---------3-----1------------------------------|
G|----0---------0---------0---------0---------0------------------------------|
D|--------------------------------------------2------------------------------|
A|--------------------------------------------0------------------------------|
E|--1---1-----1---1-----3---3-----3---3-------0------------------------------|


[Chorus]

Am7                                    G
You watch me bleed until I can't breathe
G        C                   F
Shaking, falling onto my knees
Am7                            G  
And now that I'm without your kisses
C               F
I'll be needing stitches
Am7                 G
Tripping over myself
        C                   F
Aching, begging you to come help
Am7                           G
And now that I'm without your kisses
C               F
I'll be needing stitches


[Verse 2] 
         
Am7         G               C   F
Just like a moth drawn to a flame
Am7                  G                    C   F
Oh, you lured me in, I couldn't sense the pain
Am7         G               C   F
Your bitter heart cold to the touch
Am7                       G
Now I'm gonna reap what I sow
G               C           F
I'm left seeing red on my own


[Pre chorus 2]

F                      G
Got a feeling that I'm going under
Am7                  G
But I know that I'll make it out alive
F                 G
If I quit calling you my lover
Am7
Move on


[Chorus 2]

Am7                                    G
You watch me bleed until I can't breathe
G        C                   F
Shaking, falling onto my knees
Am7                            G  
And now that I'm without your kisses
C               F
I'll be needing stitches
Am7                 G
Tripping over myself
        C                   F
Aching, begging you to come help
Am7                           G
And now that I'm without your kisses
C               F
I'll be needing stitches


[Bridge]

Repeated 3 times (palm muted)

Am7
Needle and the thread,
G
Gotta get you out of my head
C
Needle and the thread,
F
Gonna wind up dead
Am7
Needle and the thread, 
G                             C                 F
Gotta get you out of my head, get you out of my head


[Chorus 3]

             Am7                 G
You watch me bleed until I can't breathe
         C        F
Shaking, falling onto my knees 
             Am7              G
And now that I'm without your kisses
C               F
I'll be needing stitches 
Am7           G
Tripping over myself,
        C                   F
Aching, begging you to come help 
Am7                           G
And now that I'm without your kisses
C               F
I'll be needing stitches

(And now that)

Am7              G
I'm without your kisses
C               F
I'll be needing stitches

(And now that)

Am7              G
I'm without your kisses
C               F
I'll be needing stitches


(End song with an Am7 chord)

we'll play it !!!
Now supports capo and sound effects for vibrato/pull-off/hammer/bends/mutes etc !!! Checkout help section
tabs and chords, guitar tabs, music contests, music covers, songsterr, reverbnation, renditions, tabulature, bollywood chords, ultimate guitar, yousician, guitar lessons, torrins, fender, gibson, acoustic guitar, electric guitar, youtube covers, gootar, guitar tuner, A-Z tabs, 911 tabs