Guitar Tabs for Stars - Simply Red Tabs

(/) Slide Up  (\) Slide Down  (h) Hammer On  (p) Pull Off  (b) Bend (r) Release (v) Vibrato

Tabs for Song : 

Song lyrics here


Song lyrics here
E|--------------------------------------------------------------------------------------------------------------
B|--------------------------------------------------------------------------------------------------------------
G|--------------------------------------------------------------------------------------------------------------
D|-----------------------------------------5--7--7--5--7--7--5--7--5---7b9--------------------------------------
A|--5--5--5--5--5--5---7b9----9---------------------------------------------------5--5--5--5--5--5---7b9----9--9
E|--------------------------------------------------------------------------------------------------------------

E|--------------------------------------------------------------------------------------------------------------
B|--------------------------------------------------------------------------------------------------------------
G|--------------------------------------------------------------------------------------------------------------
D|--7--7--7--7--7--5--9--7--5---7b9-----------------------------------------------5--5--7--7--5--7--7--9--7--5--
A|--------------------------------------------5--5--5--5--5--5---7b9----9---------------------------------------
E|--------------------------------------------------------------------------------------------------------------

E|-----------------------------------------------------------------------------------------------------------------
B|-----------------------------------------------------------------------------------------------------------------
G|-----------------------------------------------------------------------------12----12-11-11-12-14-12-11-12-11-9--
D|-----------------------------------------7--7--7--7--9--7--9--7--5-----------------------------------------------
A|--5--5--5--5--5--5---7b9----9--9---------------------------------------------------------------------------------
E|-----------------------------------------------------------------------------------------------------------------

E|--------------------------------------------------
B|--------------------------------------------------
G|-----------------------------12----11-------------
D|--9--9--10-12-10-9--------------------------------
A|--------------------------------------------------
E|--------------------------------------------------

Now supports capo and sound effects for vibrato/pull-off/hammer/bends etc !!! Checkout help section
tabs and chords, guitar tabs, music transcription, music technology, deep learning, music information retrieval, transcribe into tabs & chords, chordify, music renditions, songsterr, reverbnation, tabulature, bollywood chords, ultimate guitar, yousician, guitar lessons, acoustic guitar, electric guitar, guitar tuner, 911 tabs