Guitar Tabs for Stars

capo 1st fret

verse:
Mind your manners, sit still look tall, Ive gotta get away, away from it all
E|--------------------------------------
B|--4-----4--4-----4--4-----4--4-----4--
G|--------------------------------------
D|--6--6-----6--6-----5--5-----5--5-----
A|--------------------------------------
E|--------------------------------------
x2 chords

All Mmm
E|--------------------------------------
B|--2-----2--2-----2--2-----2--2-----2--
G|--------------------------------------
D|--3--3-----3--3-----2--2-----2--2-----
A|--------------------------------------
E|--------------------------------------

Repeat for second verse

pre-chorus:
you mean everything to me but you're not even there, can't you see i've set my own trap here
E|-----------------------------------------
B|--4-----4-----4-----4-----8--8--8--8--6--
G|--5-----5-----5-----5-----8--8--8--8--6--
D|--6-----5-----6-----5-----1--1--1--1--1--
A|-----------------------------------------
E|-----------------------------------------


chorus:
its like watching the stars
E|--------------------------------------------------
B|-----------4-----------4-----------4-----------4--
G|-----5-----------5-----------5-----------5--------
D|--6-----6-----6-----6-----5-----5-----5-----5-----
A|--------------------------------------------------
E|--------------------------------------------------
repeats for entire chorus

bridge is same pattern as the verses

chorus is the same as the last chorus

tabs and chords, guitar tabs, music contests, music covers, songsterr, reverbnation, renditions, tabulature, bollywood chords, ultimate guitar, yousician, guitar lessons, torrins, fender, gibson, acoustic guitar, electric guitar, youtube covers, gootar, guitar tuner, A-Z tabs, 911 tabs