Guitar Tabs for Rewrite The Stars

(/) Slide Up  (\) Slide Down  (h) Hammer On  (p) Pull Off  (b) Bend (r) Release (v) Vibrato (x) Muted

Tabs for Song : 

Song lyrics here
E|-----------------------------------------------------
B|-----------------0--------------------0--------------
G|-----0--0--0--2-----------0--0--0--2-----2--0--------
D|-----0--------------------0-----0-----------------0--
A|-----------------------------------------------------
E|--3--------------------3-----------------------3-----

E|--------------------------------------------------------------------------------------
B|-----------------------------------------0--------------------------------------------
G|-----2--2--2--2--0-----0-----0--0--0--2-----2--0--------0-----0--------0--2-----------
D|--0-----------------4-----------------2--------------2-----2--------2---------2/4-----
A|--------------------------------------------------3--------------3-----------------5--
E|--------------------------0-----------------------------------------------------------

E|-----------------------------------------------------------------------------------
B|--------1--0-----------------------0-----------------------------------0-----------
G|--0--0--0-----2--0--------0--0--2-----2--0--------0-----0--------0--2--------0--0--
D|--------0--------------2--------2--------------2-----2--------2--------------2--2--
A|--------------------------------------------3--------------3-----------------3--3--
E|--------------------0--------------------------------------------------------------

E|-----------3--2--------------------------------------------------
B|-----------0-----0--1------------------3/5--------3--------------
G|--0--2--0--0-----------------0--2--0-----------------0---0/2-----
D|-----------2--------------2--------------------0--------------0--
A|-----------2-----------3-----------------------------------------
E|-----------0--------------------------------3--------------------

E|--------------3--2--------------------------------------------------
B|--------------0-----3--1-----------------3-----------3--------------
G|--0--0--2--0--0-----------------0--2--0--------0--0--0--0---0/2-----
D|-----0--------2--------------2-----------------0--0--------------0--
A|--------------2-----------3-----------------------------------------
E|--------------0-----------------------------3-----------------------

E|--------------------------------------------------------------------------------------
B|--------0--0--------------------0--0------------------------3/5-----3--3--1--0--------
G|--0--2--------------0-----0--2--------------0-----0--2--0-----------0--0--------2-----
D|-----------------2--------2--------------2-----------------------------------------0--
A|--------------------------------------3--------3--------------------------------------
E|--------------0--------0-----------------------------------------3--------------------

E|--------------3--2-----------------------------------------------------
B|--------------0--0--0--1-----------------3--------1--0-----------------
G|--0--0--2--0--0--0--------------0--2--0-----------------2--------0--0--
D|-----0--------2--------------2-----------------0-----------0-----------
A|--------------2-----------3--------------------------------------------
E|--------------0-----------------------------3--------------------------

Song lyrics here
E|--
B|--
G|--
D|--
A|--
E|--

Paste any tab in acousterr's tab maker and we'll play it !!!
Now supports capo and sound effects for vibrato/pull-off/hammer/bends/mutes etc !!! Checkout help section
tabs and chords, guitar tabs, music transcription, music technology, deep learning, music information retrieval, transcribe into tabs & chords, chordify, music renditions, songsterr, reverbnation, tabulature, bollywood chords, ultimate guitar, yousician, guitar lessons, acoustic guitar, electric guitar, guitar tuner, 911 tabs