Guitar Tabs for Starlight Whole Tab

(/) Slide Up  (\) Slide Down  (h) Hammer On  (p) Pull Off  (b) Bend (r) Release (v) Vibrato (x) Muted

Tabs for Song : 
BPM : 200

intro:
E|--0--------0--1--------1--0-----0--------0--1--------1--0-----0--------0--1--------1--0-----0--------0--1--
B|-----1-----------3-----------3-----1-----------1-----------3-----1-----------3-----------3-----1-----------
G|--------0-----------2-----------------2-----------2-----------------0-----------2-----------------2--------
D|--------------0-----------------------------3-----------------------------0-----------------------------3--
A|--3-----------------------------0-----------------------------3-----------------------------0--------------
E|-----------------------------------------------------------------------------------------------------------

E|--------1--0-----
B|--1-----------3--
G|-----2-----------
D|-----------------
A|-----------------
E|-----------------

Verse 1:
E|-----------1--------------0--------------------------0--------0--0--1--0-----0--1--0--0--0--1--0--------
B|--3--1--1-----3--3--1--3-----3--3--1--1--1--3--1--3-----3--3--------------3-----------------------3--1--
G|-----------------------------------------------------------------------------------------------------2--
D|-----------0--------------------------------------------------------0--------------------------------3--
A|--3-----------------------------0--------------------------3--------------------------0-----------------
E|-----------------------------------------1-----------------------------------------------------------1--

E|-----------1--------------0-----------------------------0--------0--0--1--0-----0--1--0--0--0--1--0-----------
B|--3--1--1-----3--3--1--3-----3--3--1--1--1--3--3--1--3-----3--3--------------3-----------------------3--1--1--
G|--------------------------------------------------------------------------------------------------------2-----
D|-----------0-----------------------------------------------------------0--------------------------------3-----
A|--3-----------------------------0-----------------------------3--------------------------0--------------------
E|-----------------------------------------1--------------------------------------------------------------1-----
Pre chorus:
E|--3--------8--------------------------------3--------8-----------------
B|--1--6--6-----6--6--5--5--1--6--5--6--5--6--1--6--6-----6--6--5--5--1--
G|-----7-----------------------------------------7-----------------------
D|-----0-----------------------------------------0-----------------------
A|--3--------------0--------------------------3--------------0-----------
E|--------------------------1-----------------------------------------1--
Verse 2:
E|-----------1-----------0--------------------------0--------0--0--1--0-----0--1--0--0--0--1--0--------
B|--3--1--1-----3--1--3-----3--3--1--1--1--3--1--3-----3--3--------------3-----------------------3--1--
G|--------------------------------------------------------------------------------------------------2--
D|-----------0-----------------------------------------------------0--------------------------------3--
A|--3--------------------------0--------------------------3--------------------------0-----------------
E|--------------------------------------1-----------------------------------------------------------1--
Chorus:
E|--1--1--1--0--0--1--0--0--0--1--0-----------0-----------------------0--------------0--0--0--0-----0--1--
B|-----------------------------------3--1--3-----3--1-----1--3--3--3--0--------1-----------0-----3-----1--
G|-----------------------------------------3--------2--2-----3--------1-----------2--------0-----------2--
D|--0--------------------------------------3--------3--------3--------------2-----------------------------
A|-----------------------------------------1-----------------1-----------0--------------------------------
E|--------------------0-----------------------------1-----------------0--------------------0--------------

E|--3--1--0--------------0--0--0--0-----0--1--3-----
B|--------1--------1-----------0-----3-----1--3--1--
G|--------0-----------2--------0-----------2--------
D|--------------2-----------------------------------
A|--------3--0--------------------------------2-----
E|-----------------------------0--------------3-----
Pre chorus:
E|--3--------8-----------------------------3--------8-----------------
B|--1--6--6-----6--6--5--5--1--6--5--6--5--1--6--6-----6--6--5--5--1--
G|-----7--------------------------------------7-----------------------
D|-----0--------------------------------------0-----------------------
A|--3--------------0-----------------------3--------------0-----------
E|--------------------------1--------------------------------------1--

E|-----------1--------------0-----------------------0--------0--0--1--0-----0--1--0--0--0--1--0--------
B|--3--1--1-----3--3--1--3-----3--1--1--1--3--1--3-----3--3--------------3-----------------------3--1--
G|--------------------------------------------------------------------------------------------------2--
D|-----------0-----------------------------------------------------0--------------------------------3--
A|--3--------------------------0--------------------------3--------------------------0-----------------
E|--------------------------------------1-----------------------------------------------------------1--
Chorus:
E|--------------0--0--0--0-----0--1--3--1--0--------------0--0--0--0--0-----0--1--3--1--3-----
B|--------1-----------0-----3-----1--------1--------1-----------0--------3-----1--------0--1--
G|-----------2--------0-----------2--------0-----------2--------0--------------2--------0-----
D|-----2-----------------------------------------2--------------------------------------------
A|--0--------------------------------------3--0-----------------------------------------------
E|--------------------0-----------------------------------------0-----------------------3-----
Outro:
E|--3--------8--------------------------------0--------0--1--------1--0-----0--------0--1--------
B|--1--6--6-----6--6--5--5--1--6--5--6--5--6-----1-----------3-----------3-----1-----------1-----
G|-----7--------------------------------------------0-----------2-----------------2-----------2--
D|-----0--------------------------------------------------0-----------------------------3--------
A|--3--------------0--------------------------3-----------------------------0--------------------
E|--------------------------1--------------------------------------------------------------------

E|--1--0-----0--------0--1--------1--0-----0--------0--1--
B|--------3-----1-----------3-----------3-----1-----------
G|-----------------0-----------2-----------------2--------
D|-----------------------0-----------------------------3--
A|-----------3-----------------------------0--------------
E|--------------------------------------------------------



Use manual mode to free up cursor. Paste any tab in acousterr tab maker and we'll play it !!!
---
E|-----
B|-----
G|-----
D|--
A|--
E|--

tabs and chords, guitar tabs, music transcription, music technology, deep learning, music information retrieval, transcribe into tabs & chords, chordify, music renditions, songsterr, reverbnation, tabulature, bollywood chords, ultimate guitar, yousician, guitar lessons, acoustic guitar, electric guitar, guitar tuner, 911 tabs