Guitar Tabs for Arpeggio Tab

(/) Slide Up  (\) Slide Down  (h) Hammer On  (p) Pull Off  (b) Bend (r) Release (v) Vibrato (x) Muted

Tabs for Song : 
BPM : 480



Song lyrics here 
E|-----------------------------------11-15-10-13-11-10-------------------------------------------10-
B|--------------------------------13-------------------10-13----10-------10-13-10-11----10----10----
G|--------------------8------8\12----------------------------11-------11-------------12----11-------
D|-----------8--10-------10----------------------------------------12-------------------------------
A|--------10-------10-------------------------------------------------------------------------------
E|--8--11-------------------------------------------------------------------------------------------

E|--11-------------------------------10-13-10----------------------10-13-10-14-10-------------------
B|-----11-15----11-------11-------11----------11----------------10----------------10----------10-13-
G|-----------12-------12-------10----------------10----------10----------------------11----11-------
D|-----------------13-------12----------------------12----12----------------------------12----------
A|-----------------------------------------------------13-------------------------------------------
E|--------------------------------------------------------------------------------------------------

E|--11----------------------------------------10-13-12----------------------------12-15-13-12-------
B|-----13-9--------------------------------12----------13----------------------13-------------15-13-
G|-----------11----------------------10-12----------------12----------------12----------------------
D|--------------13-10----------9--12-------------------------14----------14-------------------------
A|--------------------11-9--10----------------------------------15-14-15----------------------------
E|--------------------------------------------------------------------------------------------------

E|-----------------------------------13-12-------------------------13-17-13-16----------------16-20-
B|--12----------------------------12-------15-13-12-13----------13-------------16----------16-------
G|-----12----------------------12----------------------14----14-------------------17----17----------
D|--------12----------------12----------------------------15-------------------------18-------------
A|-----------14----------14-------------------------------------------------------------------------
E|--------------15-10-15----------------------------------------------------------------------------

E|--19-16-15----------------------------------15-16-15----20-------------------------------
B|-----------18-16-15----------------15-16-18-------------------16----20----16-15----------
G|--------------------17-16----16-17-------------------17----17----17----17-------17-16-17-
D|--------------------------17-------------------------------------------------------------
A|-----------------------------------------------------------------------------------------
E|-----------------------------------------------------------------------------------------

Song lyrics here 
E|--
B|--
G|--
D|--
A|--
E|--

Use manual mode to free up cursor. Paste any tab in acousterr tab maker and we'll play it !!!

Guitar Tabs for Arpeggio Tab








E|--
B|--
G|--
D|--
A|--
E|--

E|--
B|--
G|--
D|--
A|--
E|--

E|--
B|--
G|--
D|--
A|--
E|--

E|--
B|--
G|--
D|--
A|--
E|--

E|--
B|--
G|--
D|--
A|--
E|--


E|--
B|--
G|--
D|--
A|--
E|--

tabs and chords, guitar tabs, music transcription, music technology, deep learning, music information retrieval, transcribe into tabs & chords, chordify, music renditions, songsterr, reverbnation, tabulature, bollywood chords, ultimate guitar, yousician, guitar lessons, acoustic guitar, electric guitar, guitar tuner, 911 tabs