Bass Tabs for Stand By Me

(/) Slide Up  (\) Slide Down  (h) Hammer On  (p) Pull Off  (b) Bend (r) Release (v) Vibrato (x) Muted

Tabs for Song : 
BPM : 140

intro


G|-----------------
D|--9--9-----8--9--
A|--------9--------
E|-----------------

G|-----------------------------------------------------------------------
D|--9--9--8--6--6-----6--6--6--------------6-----------8--9--9-----8--9--9--
A|-----------------9-----------9--7--7--7-----9--9--9-----------9-----------
E|--------------------------------------------------------------------------



the rest of song
G|--------------------------------------------------------------------------------------------------------
D|-----8--9--9-----8--9--9--9--8--6--6-----6--6-----6--6--6--------------6-----------8--9--9-----8--9--9--
A|--9-----------9-----------------------9--------9-----------9--7--7--7-----9--9--9-----------9-----------
E|--------------------------------------------------------------------------------------------------------

Paste any tab in acousterr's tab maker and we'll play it !!!
Now supports capo and sound effects for vibrato/pull-off/hammer/bends/mutes etc !!! Checkout help section








tabs and chords, guitar tabs, music transcription, music technology, deep learning, music information retrieval, transcribe into tabs & chords, chordify, music renditions, songsterr, reverbnation, tabulature, bollywood chords, ultimate guitar, yousician, guitar lessons, acoustic guitar, electric guitar, guitar tuner, 911 tabs