Guitar Tabs for Spring Day

(/) Slide Up  (\) Slide Down  (h) Hammer On  (p) Pull Off  (b) Bend (r) Release (v) Vibrato (x) Muted

Tabs for Song : capo on 3rd fret
BPM : 200

Song lyrics here
E|-----0--0--x--0--0--------------x--------------------x--------------------x-----------3--0-----x-----------------
B|--1-----1--x--1---------1p3--3--x--1--1------3/5--5--x--5--5------1/3--3--x--1--1-----1--1--3--x--1--1-----0-----
G|--0-----0--x--0---------0p------x--0--0------2/5--5--x--5--5------2/---2--x--2--2-----------2--x--2--2--------0--
D|--------2--x--2--------------2--x--------------------x--------------------x--------3-----------x--------2--------
A|--------3--x--3-----3-----------x-----------------0--x--0-----0-----------x--------------0-----x--0--------------
E|-----------x-----------------0--x--0-----0---0/------x-----------------1--x--1-----------------x--------------0--

E|-----x-----------3--0-----x-----------------x-----1--0--
B|-----x--1--1-----1--0--3--x--1--1-----0-----x-----------
G|-----x--0--0-----------2--x--2--2-----0--0--x-----------
D|--2--x--------------------x--------------0--x-----------
A|-----x--------------------x-----------------x-----------
E|-----x--0-----0-----1-----x--1-----1-----3--x--3--------

Song lyrics here
E|--
B|--
G|--
D|--
A|--
E|--

Paste any tab in acousterr's tab maker and we'll play it !!!
Now supports capo and sound effects for vibrato/pull-off/hammer/bends/mutes etc !!! Checkout help section
tabs and chords, guitar tabs, music transcription, music technology, deep learning, music information retrieval, transcribe into tabs & chords, chordify, music renditions, songsterr, reverbnation, tabulature, bollywood chords, ultimate guitar, yousician, guitar lessons, acoustic guitar, electric guitar, guitar tuner, 911 tabs