Guitar Tabs for Space Age Lead Guitar

(/) Slide Up  (\) Slide Down  (h) Hammer On  (p) Pull Off  (b) Bend (r) Release (v) Vibrato (x) Muted

Tabs for Song : Space Age
BPM : 90

Intro
E|--11----11----9-----11----------11-------11-------------11----11-
B|--9-----8-----9-----9--------9--------9--------9-----9--------9--
G|--8-----8-----9-----11----10-------10-------10----9--------9--9--
D|-----------------------------------------------------------------
A|-----------------------------------------------------------------
E|-----------------------------------------------------------------

Post-Chorus (x2) Strumming eighth notes
E|--------------------------------------------------
B|--------------------------------------------------
G|--------------------------------------------8--8--
D|--6--6--6--6--6--6--6--6--6--6--6--6--6--6--8--8--
A|--6--6--6--6--6--6--6--6--6--6--6--6--6--6--6--6--
E|--4--4--4--4--4--4--4--4--4--4--4--4--4--4--------

E|--------------------------------------------------
B|--------------------------------------------------
G|--9--9--9--9--9--9--9--9--9--9--9--9--11-11-11-11-
D|--9--9--9--9--9--9--9--9--9--9--9--9--11-11-11-11-
A|--7--7--7--7--7--7--7--7--7--7--7--7--9--9--9--9--
E|--------------------------------------------------

Verse 1 (x2) the same
E|--------------------------------------------------
B|--------------------------------------------------
G|--------------------------------------------8--8--
D|--6--6--6--6--6--6--6--6--6--6--6--6--6--6--8--8--
A|--6--6--6--6--6--6--6--6--6--6--6--6--6--6--6--6--
E|--4--4--4--4--4--4--4--4--4--4--4--4--4--4--------

E|--------------------------------------------------
B|--------------------------------------------------
G|--9--9--9--9--9--9--9--9--9--9--9--9--11-11-11-11-
D|--9--9--9--9--9--9--9--9--9--9--9--9--11-11-11-11-
A|--7--7--7--7--7--7--7--7--7--7--7--7--9--9--9--9--
E|--------------------------------------------------

Chorus (x2)
E|--------------------------------------------------
B|--4--7--7--7--7--9-----11-11-11-11-9--9--9--11-11-
G|--------------------------------------------------
D|--1--4--4--4--4--6-----8--8--8--8--6--6--6--8--8--
A|--------------------------------------------------
E|--------------------------------------------------

E|--------------------------------------------------
B|--12-12-12-12-12-12-12-12-12-12-12-12-11-11-11-11-
G|--------------------------------------------------
D|--9--9--9--9--9--9--9--9--9--9--9--9--8--8--8--8--
A|--------------------------------------------------
E|--------------------------------------------------

Post-Chorus (x2)
E|--------------------------------------------------
B|--------------------------------------------------
G|--------------------------------------------8--8--
D|--6--6--6--6--6--6--6--6--6--6--6--6--6--6--8--8--
A|--6--6--6--6--6--6--6--6--6--6--6--6--6--6--6--6--
E|--4--4--4--4--4--4--4--4--4--4--4--4--4--4--------

E|--------------------------------------------------
B|--------------------------------------------------
G|--9--9--9--9--9--9--9--9--9--9--9--9--11-11-11-11-
D|--9--9--9--9--9--9--9--9--9--9--9--9--11-11-11-11-
A|--7--7--7--7--7--7--7--7--7--7--7--7--9--9--9--9--
E|--------------------------------------------------

Verse 2 Pt. 1 (x2)
E|--------------------------------
B|--------------------------------
G|--------------8--9-----------11-
D|--6-----------8--9-----------11-
A|--6-----------6--7-----------9--
E|--4-----------------------------

Verse 2 Pt. 2 (x2)
E|--------------------------------------------------
B|--------------------------------------------------
G|--------------------------------------------8--8--
D|--6--6--6--6--6--6--6--6--6--6--6--6--6--6--8--8--
A|--6--6--6--6--6--6--6--6--6--6--6--6--6--6--6--6--
E|--4--4--4--4--4--4--4--4--4--4--4--4--4--4--------

E|--------------------------------------------------
B|--------------------------------------------------
G|--9--9--9--9--9--9--9--9--9--9--9--9--11-11-11-11-
D|--9--9--9--9--9--9--9--9--9--9--9--9--11-11-11-11-
A|--7--7--7--7--7--7--7--7--7--7--7--7--9--9--9--9--
E|--------------------------------------------------

Chorus (x2)
E|--------------------------------------------------
B|--4--7--7--7--7--9-----11-11-11-11-9--9--9--11-11-
G|--------------------------------------------------
D|--1--4--4--4--4--6-----8--8--8--8--6--6--6--8--8--
A|--------------------------------------------------
E|--------------------------------------------------

E|--------------------------------------------------
B|--12-12-12-12-12-12-12-12-12-12-12-12-11-11-11-11-
G|--------------------------------------------------
D|--9--9--9--9--9--9--9--9--9--9--9--9--8--8--8--8--
A|--------------------------------------------------
E|--------------------------------------------------

Bridge pt. 1 (x3)
E|--------------------------------------------------
B|--------------------------------------5--5--5--5--
G|--------------------------------------------------
D|--4--6--6--6--6-----4-----2--2--2--2--2--2--2--2--
A|--4--6--6--6--6-----4-----2--2--2--2--------------
E|--2--4--4--4--4-----2-----0--0--0--0--------------

E|--------------------------------------------------
B|--------------------------------------7--7--7--7--
G|-----4-----4--4--6--4-----------------------------
D|-----4-----4--4--6--4-----4--4--4--4--4--4--4--4--
A|-----2-----2--2--4--2-----4--4--4--4--------------
E|--------------------------2--2--2--2--------------

Bridge Pt. 2
E|--------------------------------------------------
B|--------------------------------------5--5--5--5--
G|--------------------------------------------------
D|--4--6--6--6--6-----4-----2--2--2--2--2--2--2--2--
A|--4--6--6--6--6-----4-----2--2--2--2--------------
E|--2--4--4--4--4-----2-----0--0--0--0--------------

E|--------------------------------------------------
B|--------------------------------------------------
G|-----4-----4--4--4-----4--------------------------
D|-----4-----4--4--4-----4-----4--4-----4--4-----4--
A|-----2-----2--2--2-----2-----4--4-----4--4-----4--
E|-----------------------------2--2-----2--2-----2--

E|--------------------------------------------
B|--12-12-12-12----12-------------------------
G|-----------------------11-11----11-11----11-
D|--9--9--9--9-----9--------------------------
A|-----------------------9--9-----9--9-----9--
E|--------------------------------------------

Bridge pt. 3
[Nothing]

Last Chorus (x4)
E|--------------------------------------------------
B|--4--7--7--7--7--9-----11-11-11-11-9--9--9--11-11-
G|--------------------------------------------------
D|--1--4--4--4--4--6-----8--8--8--8--6--6--6--8--8--
A|--------------------------------------------------
E|--------------------------------------------------

E|--------------------------------------------------
B|--12-12-12-12-12-12-12-12-12-12-12-12-11-11-11-11-
G|--------------------------------------------------
D|--9--9--9--9--9--9--9--9--9--9--9--9--8--8--8--8--
A|--------------------------------------------------
E|--------------------------------------------------

Post-Chorus (x2)
E|--------------------------------------------------
B|--------------------------------------------------
G|--------------------------------------------8--8--
D|--6--6--6--6--6--6--6--6--6--6--6--6--6--6--8--8--
A|--6--6--6--6--6--6--6--6--6--6--6--6--6--6--6--6--
E|--4--4--4--4--4--4--4--4--4--4--4--4--4--4--------

E|--------------------------------------------------
B|--------------------------------------------------
G|--9--9--9--9--9--9--9--9--9--9--9--9--11-11-11-11-
D|--9--9--9--9--9--9--9--9--9--9--9--9--11-11-11-11-
A|--7--7--7--7--7--7--7--7--7--7--7--7--9--9--9--9--
E|--------------------------------------------------

Outro
E|--11----11----9-----11----------11-------11-------------11----11-
B|--9-----8-----9-----9--------9--------9--------9-----9--------9--
G|--8-----8-----9-----11----10-------10-------10----9--------9--9--
D|-----------------------------------------------------------------
A|-----------------------------------------------------------------
E|-----------------------------------------------------------------
tabs and chords, guitar tabs, music transcription, music technology, deep learning, music information retrieval, transcribe into tabs & chords, chordify, music renditions, songsterr, reverbnation, tabulature, bollywood chords, ultimate guitar, yousician, guitar lessons, acoustic guitar, electric guitar, guitar tuner, 911 tabs