Bass Tabs for Space Ii

(/) Slide Up  (\) Slide Down  (h) Hammer On  (p) Pull Off  (b) Bend (r) Release (v) Vibrato (x) Muted

Tabs for Song : 

Metroid (Slap Bass)
F|--------------------------------------------------------------------------------------------------------------
C|-----------7-----------7--------------6-----------6--------------3-----------3--------------------------------
G|--------------------------------------------------------------------------------------------------------------
D|--5--5--5--------5--5--------4--4--4--------4--4--------1--1--1--------1--1--------7--7-----7-----8--8-----8--
A|--------------------------------------------------------------------------------------------------------------
Metroid (Slap Bass)
F|--------------------------------------------------------------------------------------------------
C|--------------------------------------------------------------------------------------------------
G|-----------------------------------------------------------------------2--2-----2-----3--3-----3--
D|--5-----5-----5-----4--5--4-----4-----4-----5--1-----1-----1-----1--------------------------------
A|--------------------------------------------------------------------------------------------------

Desolation verse
F|--------------
C|-----0--1-----
G|--0--------2--
D|--------------
A|--------------
Desolation Chorus
F|-----------------------------------------------------------
C|-----------------------------------------------------------
G|--3--3--3--------------------------------------------------
D|-----------3--3--1--1--4--4--4--4--4--4--3--3--3--3--3--3--
A|-----------------------------------------------------------

Paste any tab in acousterr's tab maker and we'll play it !!!
Now supports capo and sound effects for vibrato/pull-off/hammer/bends/mutes etc !!! Checkout help section
tabs and chords, guitar tabs, music transcription, music technology, deep learning, music information retrieval, transcribe into tabs & chords, chordify, music renditions, songsterr, reverbnation, tabulature, bollywood chords, ultimate guitar, yousician, guitar lessons, acoustic guitar, electric guitar, guitar tuner, 911 tabs