Guitar Tabs for Song Fuzz

(/) Slide Up  (\) Slide Down  (h) Hammer On  (p) Pull Off  (b) Bend (r) Release (v) Vibrato (x) Muted

Tabs for Song : 

Song lyrics here

Song lyrics here
E|--------------------------------------------------------------------------------------------------
B|--------------------------------------------------------------------------------------------------
G|--------------------------------------------------------------------------------------------------
D|-----------3-----3--2--------------3-----3--2-----2-----5-----3--2--------2-----5-----3--2--------
A|--0--5--3-----3--------0--0--5--3-----3--------0-----0-----3--------5--0-----0-----3--------5--0--
E|--------------------------------------------------------------------------------------------------

E|--------------------------------------------------------------------------------------------------
B|--------------------------------------------------------------------------------------------------
G|--0--2--------------------0--2--------------------------------------------------------------------
D|--------2--3--------------------2--3-----------------------3-----3--2--------------3-----3--2-----
A|--------------3--2-----5--------------3--2-----5--0--5--3-----3--------0--0--5--3-----3--------0--
E|--------------------3-----------------------3-----------------------------------------------------

E|--------------------------------------------------------------------------------------------------
B|--------------------------------------------------------------------------------------------------
G|--------------------------------------------------14-16-17----------------14-16-17----------------
D|--------14-15-------------------14-15-------------------------15----14-12-------------15----14-12-
A|--12-14-------15----------12-14-------15-------------------14----15----------------14----15-------
E|-----------------15-13-12----------------15-13-12-------------------------------------------------

E|--------------------------------------------------------------------------------------------------
B|--------------------------------------------------------------------------------------------------
G|--------------------------------------------------------------------------------------------------
D|--2-----5-----3--2--------2-----5-----3--2--------2-----5-----3--2--------2-----5-----3--2--------
A|-----0-----3--------5--0-----0-----3--------5--0-----0-----3--------5--0-----0-----3--------5--0--
E|--------------------------------------------------------------------------------------------------

E|--------------------------------------------------------------------------------------------------
B|--------------------------------------------------------------------------------------------------
G|--------------------------------------------------------------------------------------------------
D|--2-----5-----3--2--------2-----5-----3--2--------2-----5-----3--2--------2-----5-----3--2--------
A|-----0-----3--------5--0-----0-----3--------5--0-----0-----3--------5--0-----0-----3--------5--0--
E|--------------------------------------------------------------------------------------------------

E|--------------------------------------------------------------------------------------------------
B|--------------------------------------------------------------------------------------------------
G|--------------------------------------------------------------------------------------------------
D|-----------3-----3--2--------------3-----3--2-----2-----5-----3--2--------2-----5-----3--2--------
A|--0--5--3-----3--------0--0--5--3-----3--------0-----0-----3--------5--0-----0-----3--------5--2--
E|--------------------------------------------------------------------------------------------------

E|----------------------------------------------------------------------------------------------------
B|-----------------------------------------------------------------------------------------------
G|--0--2--4--5--------5--4--9--7--------7--5--4--0--2--4--5--------5--4--9--7--------7--5--4--2--
D|--------------7--5--------------9--7-----------------------7--5--------------9--7--------------
A|-----------------------------------------------------------------------------------------------
E|-----------------------------------------------------------------------------------------------

Paste any tab in acousterr's tab maker and we'll play it !!!
Now supports capo and sound effects for vibrato/pull-off/hammer/bends/mutes etc !!! Checkout help section
tabs and chords, guitar tabs, music transcription, music technology, deep learning, music information retrieval, transcribe into tabs & chords, chordify, music renditions, songsterr, reverbnation, tabulature, bollywood chords, ultimate guitar, yousician, guitar lessons, acoustic guitar, electric guitar, guitar tuner, 911 tabs