Bass Tabs for Song For Ochestra

Tabs for Song : School Ochestra

G|--------------------------------------------------------------------------------------------------------------------
D|--------------------------------3--3--------------------------------------------------------------------------------
A|--3--3--3--3--3--3--------1--1--------3--3--1-----------3--1-----3--1-----------3--1-----3--1-----------3--1--3--3--
E|--------------------3--3-----------------------4--3--4--------3--------4--3--4--------3--------4--3--4--------------

G|--------------------------------------------------------------
D|--------------------------------------------------------------
A|--2-----------2-----------2-----------2-----------2-----------
E|-----3--5--0-----3--5--0-----3--5--0-----3--5--0-----3--5--0--


G|--------------------------
D|--------------------------
A|--------------------------
E|--2--2--2--2--2--2--2--2--

G|---------------------------------------------------------------------------------------------|
D|--------------------------2-----------------------------2------------------------------------|
A|--2--4--5--2--4--5--2--2-----3--2--4--5--2--4--5--2--2-----3--2--4--5--2-----------------2---|
E|-----------------------------------------------------------------------------------2--3------|

G|--------------------------------------------------------------------------------
D|--------------0--3--------------------------------------------------------------
A|--0-----1--------------------5--1--0--3--5--------3--5--5--------------1--------
E|-----3-----0--------3--1--0-----------------3--5-----------1--3--1--0-----3--1--

G|---------------------------------------------------------------------------------|
D|--0--0--0--0--0--0--0-----------0------------------------------------------------|
A|-----------------------2--5--0-----4--2-----0--7--------------2-----0--7--3------|
E|-----------------------------------------2--------3--0--3--0-----2-----------0---|
Paste any tab in acousterr's tab maker and we'll play it !!!
Now supports capo and sound effects for vibrato/pull-off/hammer/bends/mutes etc !!! Checkout help section
tabs and chords, guitar tabs, music transcription, music technology, deep learning, music information retrieval, transcribe into tabs & chords, chordify, music renditions, songsterr, reverbnation, tabulature, bollywood chords, ultimate guitar, yousician, guitar lessons, acoustic guitar, electric guitar, guitar tuner, 911 tabs