Guitar Tabs for Sa Re Ga Ma

(/) Slide Up  (\) Slide Down  (h) Hammer On  (p) Pull Off  (b) Bend (r) Release (v) Vibrato (x) Muted

Tabs for Song : 
BPM : 120


Octave 1
E|-------------------------
B|-------------------------
G|-------------------4--5--
D|-------------5--7--------
A|----5--7--8--------------
E|-8-----------------------

Octave 2
E|-----------------5--7--8---------
B|--------5--6--8------------------
G|--5--7---------------------------
D|---------------------------------
A|---------------------------------
E|---------------------------------


Octave 3
E|----------------------------
B|--------------------0--1----
G|--------------0--2----------
D|-----0--2--3----------------
A|--3-------------------------
E|----------------------------

Octave 4
E|--------0--1--3--5--7--8-
B|--1--3-------------------
G|-------------------------
D|-------------------------
A|-------------------------
E|-------------------------

Complete set
E|----------------------------------0--1--3--5--7--8--8--7--5-----------------------------------------
B|----------------------0--1--1--3-----------------------------8--6--5--------------------------------
G|----------------0--2--------------------------------------------------7--5-5--4---------------------
D|-------0--2--3-------------------------------------------------------------------7--5---------------
A|----3----------------------------------------------------------------------------------8--7--5------
E|------------------------------------------------------------------------------------------------8---
tabs and chords, guitar tabs, music transcription, music technology, deep learning, music information retrieval, transcribe into tabs & chords, chordify, music renditions, songsterr, reverbnation, tabulature, bollywood chords, ultimate guitar, yousician, guitar lessons, acoustic guitar, electric guitar, guitar tuner, 911 tabs