Guitar Tabs for Blake The Kid

(/) Slide Up  (\) Slide Down  (h) Hammer On  (p) Pull Off  (b) Bend (r) Release (v) Vibrato (x) Muted

Tabs for Song : key of G

After second
E|--------------------------7--------------------5--3--
B|-----------------------------------------------------
G|--0--4--5--7--4--7--4--7-----7--5--4--5--4--5--------
D|-----------------------------------------------------
A|-----------------------------------------------------
E|-----------------------------------------------------

After third
E|--------------------------7--------------------5--3--
B|-----------------------------------------------------
G|--0--4--5--7--4--7--4--7-----7--5--4--5--4--5--------
D|-----------------------------------------------------
A|-----------------------------------------------------
E|-----------------------------------------------------

After fourth
E|-----------7--------------------5--------------------3--3--
B|-----------------------------------------------------------
G|--4--5--7-----7--7--6--7--6--5-----5--5--4--5--2--4--------
D|-----------------------------------------------------------
A|-----------------------------------------------------------
E|-----------------------------------------------------------

After sixth
E|--------------------------7--------------------5--3--
B|-----------------------------------------------------
G|--0--4--5--7--4--7--4--7-----7--5--4--5--4--5--------
D|-----------------------------------------------------
A|-----------------------------------------------------
E|-----------------------------------------------------

Last one
E|-----------7--------------------5--------------------3--3--
B|-----------------------------------------------------------
G|--4--5--7-----7--7--6--7--6--5-----5--5--4--5--2--4--------
D|-----------------------------------------------------------
A|-----------------------------------------------------------
E|-----------------------------------------------------------



Now supports capo and sound effects for vibrato/pull-off/hammer/bends/mutes etc !!! Checkout help section
tabs and chords, guitar tabs, music transcription, music technology, deep learning, music information retrieval, transcribe into tabs & chords, chordify, music renditions, songsterr, reverbnation, tabulature, bollywood chords, ultimate guitar, yousician, guitar lessons, acoustic guitar, electric guitar, guitar tuner, 911 tabs