Guitar Tabs for Hey Kid

Tabs for Song : Hey Kid v1
Chords used: A5 - A - D5 - Bsus2 
Key: A

Verse
E|--x--x-----x--x--x--x-----x--x--x--x---x/x---x/x--x--x--
B|--x--x-----x--x--x--x-----x--x--x--x---x/x---x/x--x--x--
G|--9--6-----7--6--7--6-----6--6--6--6---2/6---2/6--9--6--
D|--7--7-----7--7--7--7-----9--7--9--7---2/7---2/7--7--7--
A|--0--0-----0--0--0--0-----0--0--0--0---0/0---0/0--0--0--
E|--x--x-----x--x--x--x-----x--x--x--x---x/x---x/x--x--x--

Bridge
E|--x--x--x--x--x--x--x--
B|--x--x--x--x--x--x--x--
G|--6--7--9--11-13-14-9--
D|--0--0--0--0--0--0--7--
A|--0--0--0--0--0--0--0--
E|--x--x--x--x--x--x--x--



    Hey Kid
    staring at the sky
    nowhere left to hide
    keep your feet in the sand
    dream and you'll be damned
    
    Hey Kid
    you will never fly
    we're all out of time
    thinking is such a blur
    pass me the liquor   

    Look Kid
    just enjoy the view
    not much left to do
    je suis désolé
    this world's in disarray

    I know
    you're gonna have a cry
    have a fucking wine
    leave me the hell alone
    i'm trying to have a cone


    
  


tabs and chords, guitar tabs, music transcription, music technology, deep learning, music information retrieval, transcribe into tabs & chords, chordify, music renditions, songsterr, reverbnation, tabulature, bollywood chords, ultimate guitar, yousician, guitar lessons, acoustic guitar, electric guitar, guitar tuner, 911 tabs