Song For Ben - Guitar Tabs

(/) Slide Up  (\) Slide Down  (h) Hammer On  (p) Pull Off  (b) Bend (r) Release (v) Vibrato (x) Muted

Tabs for Song : 
BPM : 200

Song lyrics here 
E|-----------3-----------------3-----------------4--------4--------3-----------------3-----------------3-----------------3--------3--------1-----------------1-----------------1---------------- 3------- ------------------
B|--------4-----4-----------4-----4-----------4-----4--------4--------4-----------4-----4-----------4-----4-----------4-----4--------4--------4-----------3-----3-----------3---------------- -4 -  4---- ------------------
G|-----3-----------3-----3-----------3-----3-----------3--------3--------3-----3-----------3-----3-----------3-----3-----------3--------3--------3-----3-----------3-----3---------------- 3------------3 ---------------
D|--1-----------------1-----------------1-----------------------------------1-----------------1-----------------1---------------------------------------------------------------------- 1-----------------1--
A|--------------------------------------------------------------------------------------------------------------------------------------------------1-----------------1-----------1--3--------------------------------------
E|--------------------------------------------------------------------------------------------------------------------------------------------------------------------------------------------------------------------------

E|--
B|--
G|--
D|--
A|--
E|--

E|--
B|--
G|--
D|--
A|--
E|--

E|--
B|--
G|--
D|--
A|--
E|--

E|--
B|--
G|--
D|--
A|--
E|--

E|--
B|-----
G|-----------
D|--------------
A|--------------
E|--------------

E|--
B|--
G|--
D|--
A|--
E|--

Song lyrics here 
E|--
B|--
G|--
D|--
A|--
E|--

Use manual mode to free up cursor. Paste any tab in acousterr tab maker and we'll play it !!!

About I Only Have Eyes for You : "I Only Have Eyes for You" is written by composer Harry Warren and lyricist Al Dubin . Successful recordings of the song have been made by Ben Selvin, The Flamingos and Art Garfunkel . John Legend sampled the song for ‘Ooo La The song was a No. 2 hit for Ben Selvin in 1934. The Flamingos' version peaked at 11 on the US Billboard Hot 100 chart and number 3 on the Billboard Hot R&B/Hip-Hop Songs chart . Rolling Stone ranked the version as number 157 on their list of the "500 Greatest Songs of All I Only Have Eyes for You has a significant contribution from artist(s) Harry Warren,Al Dubin,Ben Selvin. It is related to the album(s) - Bigger Love. Its associated with movies - Dames.

About Harry Warren - Harry Warren was the first major American songwriter to write primarily for film . He was nominated for the Academy Award for Best Original Song eleven times . Warren won three Oscars for composing "Lullaby of Broadway", "You'll Never Know" Over a career spanning four decades, Warren wrote more than 800 songs . Other well known hits included "You Must Have Been a Beautiful Baby", "Jeepers Creepers", "The Gold Diggers' Song (We're in the Money)", "That's Amore", "There Will Never Be Another You", "Chattanooga Ch Warren was born Salvatore Antonio Guaragna, one of eleven children of Italian immigrants Antonio (a bootmaker) and Rachel De Luca . His father changed the family name to Warren when Harry was a child . He sang in the church choir and learned to play drums . Harry Warren's most popular songs include - Lullaby of Broadway,You'll Never Know,On the Atchison, Topeka and the Santa Fe. Harry Warren's music is influenced by genre(s) - popular music.

About Al Dubin - Alexander Dubin (June 10, 1891) was an American lyricist . Dubin was best known for Al Dubin came from a Russian Jewish family that emigrated to the United States from Switzerland when he was two years old . At age 14 he began writing special material for a vaudeville entertainer on 28th Street between 5th and Broadway in New York City . Dubin was expelled from Perkiomen Seminary in 1911 after writing Alma Mater (song) He continued to write lyrics and tried selling them to area publishing firms . Dubin met composer Joe Burke, who wrote the song "Oh, You, Mister Moon" (1911)

About Ben Selvin - Benjamin Selvin was known as the Dean of Recorded Music . He was a musician, bandleader and record producer . Sel Selvin started his professional life at age 15 as a fiddle player in New York City night clubs . He released what was later alleged to be the biggest-selling popular song in the first quarter-century of recorded music . Selvin recorded more musical sides (on 78-rpm discs) than any other person . His output has been estimated at 13,000 to 20,000 song titles . One reason for this prolific output is that he recorded for dozens of different labels . Ben Selvin's music is influenced by genre(s) - jazz , big band.

About Dames (film) : The film stars Ruby Keeler, Dick Powell, Joan Blondell, Guy Kibbee, ZaSu Pitts and Hugh Herbert . Production numbers and songs include "When You Were a Smile on Your Mother's Lips (and a Twinkle in Your Daddy's Eye" Ezra Ounce's main purpose in life is raising American morals through a nationwide campaign . He visits his cousin Matilda Hemingway in New York City, in Horace's view the center of immorality in America . Matilda's husband Horace (Guy Kibbee) meets a showgirl named Mabel (Joan Blondell) who's stranded in Troy when her show folds . Terrified of scandal, Horace leaves her some money and his business card, along with a note telling her to not mention their meeting to anyone .

tabs and chords, guitar tabs, music transcription, music technology, deep learning, music information retrieval, transcribe into tabs & chords, chordify, music renditions, songsterr, reverbnation, tabulature, bollywood chords, ultimate guitar, yousician, guitar lessons, acoustic guitar, electric guitar, guitar tuner, 911 tabs