Somewhere Over The Rainbow What A Wonderful World - Israel Kamakawiwo?ole - Guitar Tabs

Ukulele (IZ)
    
    G (C)                                                                                                                                                                                                                                                                                                                                                                                                                                                                                                                                                                                             G (C)                                                                                                                                                                                                                                                                                                                                                                                                                                                                                                                                                                                             
E|--3--x--3--3--x--x--3--3--2--x--2--2--x--x--2--2-|0--x--0--0--x--x--0--0--0--x--0--0--x--x--0--0-|
B|--3--x--3--3--x--x--3--3--3--x--3--3--x--x--3--3-|0--x--0--0--x--x--0--0--1--x--1--1--x--x--1--1-|
G|--4--x--4--4--x--x--4--4--2--x--2--2--x--x--2--2-|0--x--0--0--x--x--0--0--0--x--0--0--x--x--0--0-|
D|--5--x--5--5--x--x--5--5--4--x--4--4--x--x--4--4-|2--x--2--2--x--x--2--2--2--x--2--2--x--x--2--2-|
A|-------------------------------------------------|-----------------------------------------------|
E|-------------------------------------------------|-----------------------------------------------|

    
                                                                                                                                                                                                                                                                D (G)                                                                                                                                                                                                                                                                                                                                                                                                                                                                                                                                                                                             D (G)                                                                                                                                                                                                                                                                                                                                 
E|--3--x--3--3--x--x--3--3--2--x--2--2--x--x--2--2-|0--x--0--0--x--x--0--0--0--x--0--0--x--x--0--0-|
B|--0--x--0--0--x--x--0--0--3--x--3--3--x--x--3--3-|0--x--0--0--x--x--0--0--3--x--3--3--x--x--3--3-|
G|--0--x--0--0--x--x--0--0--2--x--2--2--x--x--2--2-|0--x--0--0--x--x--0--0--0--x--0--0--x--x--0--0-|
D|--0--x--0--0--x--x--0--0--0--x--0--0--x--x--0--0-|2--x--2--2--x--x--2--2--2--x--2--2--x--x--2--2-|
A|-------------------------------------------------|-----------------------------------------------|
E|-------------------------------------------------|-----------------------------------------------|

    
                                                                                                                                                                                                                                                                                                                                                                                                                                                                                                                                                                                                                                                                                                                                                                                                                                                                                                                                                                                                                                                                                                                                                                                              
E|--0--x--0--0--x--x--0--0--0--x--0--0--x--x--0--0-|3--x--3--3--x--x--3--3--2--x--2--2--x--x--2--2-|
B|--1--x--1--1--x--x--1--1--1--x--1--1--x--x--1--1-|0--x--0--0--x--x--0--0--3--x--3--3--x--x--3--3-|
G|--0--x--0--0--x--x--0--0--0--x--0--0--x--x--0--0-|0--x--0--0--x--x--0--0--2--x--2--2--x--x--2--2-|
D|--2--x--2--2--x--x--2--2--2--x--2--2--x--x--2--2-|0--x--0--0--x--x--0--0--4--x--4--4--x--x--4--4-|
A|-------------------------------------------------|-----------------------------------------------|
E|-------------------------------------------------|-----------------------------------------------|

    
    D (G)                                                                                                                                                                                                                                                                                                                                                                                                                                                                                                                                                                                             D (G)                                                                                                                                                                                                                                                                                                                                                                                                                                                                                                                                                                                             
E|--2--x--2--2--x--x--2--2--2--x--2--2--x--x--2--2-|0--x--0--0--x--x--0--0--0--x--0--0--x--x--0--0-|
B|--3--x--3--3--x--x--3--3--3--x--3--3--x--x--3--3-|1--x--1--1--x--x--1--1--1--x--1--1--x--x--1--1-|
G|--2--x--2--2--x--x--2--2--2--x--2--2--x--x--2--2-|0--x--0--0--x--x--0--0--0--x--0--0--x--x--0--0-|
D|--0--x--0--0--x--x--0--0--0--x--0--0--x--x--0--0-|2--x--2--2--x--x--2--2--2--x--2--2--x--x--2--2-|
A|-------------------------------------------------|-----------------------------------------------|
E|-------------------------------------------------|-----------------------------------------------|

    
                                                                                                                                                                                                                                                                                                                                                                                                                                                                                                                                                                                                                                                                                                                                                                                                                                                                                                                                                                                                                                                                                                                                                                                              
E|--3--x--3--3--x--x--3--3--3--x--3--3--x--x--3--3-|0--x--0--0--x--x--0--0--0--x--0--0--x--x--0--0-|
B|--0--x--0--0--x--x--0--0--0--x--0--0--x--x--0--0-|1--x--1--1--x--x--1--1--1--x--1--1--x--x--1--1-|
G|--0--x--0--0--x--x--0--0--0--x--0--0--x--x--0--0-|0--x--0--0--x--x--0--0--0--x--0--0--x--x--0--0-|
D|--0--x--0--0--x--x--0--0--0--x--0--0--x--x--0--0-|2--x--2--2--x--x--2--2--2--x--2--2--x--x--2--2-|
A|-------------------------------------------------|-----------------------------------------------|
E|-------------------------------------------------|-----------------------------------------------|

    
                                                                                                                                                                                                                                                                                                                                                                                                                                                                                                                                                                                                                                                                                                                                                                                                                                                                                                                                                                                                                                                                                                                                                                                              
E|--2--x--2--2--x--x--2--2--2--x--2--2--x--x--2--2-|0--x--0--0--x--x--0--0--0--x--0--0--x--x--0--0-|
B|--0--x--0--0--x--x--0--0--0--x--0--0--x--x--0--0-|0--x--0--0--x--x--0--0--0--x--0--0--x--x--0--0-|
G|--2--x--2--2--x--x--2--2--2--x--2--2--x--x--2--2-|0--x--0--0--x--x--0--0--0--x--0--0--x--x--0--0-|
D|--1--x--1--1--x--x--1--1--1--x--1--1--x--x--1--1-|2--x--2--2--x--x--2--2--2--x--2--2--x--x--2--2-|
A|-------------------------------------------------|-----------------------------------------------|
E|-------------------------------------------------|-----------------------------------------------|

    
                                                                                                                                                                                                                                                                                                                                                                                                                                                                                                                                                                                                                                                                                                                                                                                                                                                                                                                                                                                                                                                                                                                                                                                              
E|--0--x--0--0--x--x--0--0--0--x--0--0--x--x--0--0-|3--x--3--3--x--x--3--3--3--x--3--3--x--x--3--3-|
B|--3--x--3--3--x--x--3--3--3--x--3--3--x--x--3--3-|3--x--3--3--x--x--3--3--3--x--3--3--x--x--3--3-|
G|--0--x--0--0--x--x--0--0--0--x--0--0--x--x--0--0-|4--x--4--4--x--x--4--4--4--x--4--4--x--x--4--4-|
D|--2--x--2--2--x--x--2--2--2--x--2--2--x--x--2--2-|5--x--5--5--x--x--5--5--5--x--5--5--x--x--5--5-|
A|-------------------------------------------------|-----------------------------------------------|
E|-------------------------------------------------|-----------------------------------------------|

    
                                                                                                                                                                                                                                                                                                                                                                                                                                                                                                                                                                                                                                                                                                                                                                                                                                                                                                                                                                                                                                                                                                                                                                                              
E|--2--x--2--2--x--x--2--2--2--x--2--2--x--x--2--2-|0--x--0--0--x--x--0--0--0--x--0--0--x--x--0--0-|
B|--3--x--3--3--x--x--3--3--3--x--3--3--x--x--3--3-|1--x--1--1--x--x--1--1--1--x--1--1--x--x--1--1-|
G|--2--x--2--2--x--x--2--2--2--x--2--2--x--x--2--2-|0--x--0--0--x--x--0--0--0--x--0--0--x--x--0--0-|
D|--4--x--4--4--x--x--4--4--4--x--4--4--x--x--4--4-|2--x--2--2--x--x--2--2--2--x--2--2--x--x--2--2-|
A|-------------------------------------------------|-----------------------------------------------|
E|-------------------------------------------------|-----------------------------------------------|

    
                                                                                                                                                                                                                                                                                                                                                                                                                                                                                                                                                                                                                                                                                                                                                                                                                                                                                                                                                                                                                                                                                                                                                                                              
E|--3--x--3--3--x--x--3--3--3--x--3--3--x--x--3--3-|0--x--0--0--x--x--0--0--0--x--0--0--x--x--0--0-|
B|--0--x--0--0--x--x--0--0--0--x--0--0--x--x--0--0-|1--x--1--1--x--x--1--1--1--x--1--1--x--x--1--1-|
G|--0--x--0--0--x--x--0--0--0--x--0--0--x--x--0--0-|0--x--0--0--x--x--0--0--0--x--0--0--x--x--0--0-|
D|--0--x--0--0--x--x--0--0--0--x--0--0--x--x--0--0-|2--x--2--2--x--x--2--2--2--x--2--2--x--x--2--2-|
A|-------------------------------------------------|-----------------------------------------------|
E|-------------------------------------------------|-----------------------------------------------|

    
                                                                                                                                                                                                                                                                                                                                                                                                                                                                                                                                                                                                                                                                                                                                                                                                                                                                                                                                                                                                                                                                                                                                                                                              
E|--3--x--3--3--x--x--3--3--3--x--3--3--x--x--3--3-|2--x--2--2--x--x--2--2--2--x--2--2--x--x--2--2-|
B|--0--x--0--0--x--x--0--0--0--x--0--0--x--x--0--0-|3--x--3--3--x--x--3--3--3--x--3--3--x--x--3--3-|
G|--0--x--0--0--x--x--0--0--0--x--0--0--x--x--0--0-|2--x--2--2--x--x--2--2--2--x--2--2--x--x--2--2-|
D|--0--x--0--0--x--x--0--0--0--x--0--0--x--x--0--0-|0--x--0--0--x--x--0--0--0--x--0--0--x--x--0--0-|
A|-------------------------------------------------|-----------------------------------------------|
E|-------------------------------------------------|-----------------------------------------------|

    
    Em (Am)                                                                                                                                                                                                                                                                                                                                                                                                                                                                                                                                                                                             Em (Am)                                                                                                                                                                                                                                                                                                                                                                                                                                                                                                                                                                                             
E|--0--x--0--0--x--x--0--0--0--x--0--0--x--x--0--0-|0--x--0--0--x--x--0--0--0--x--0--0--x--x--0--0-|
B|--0--x--0--0--x--x--0--0--0--x--0--0--x--x--0--0-|1--x--1--1--x--x--1--1--1--x--1--1--x--x--1--1-|
G|--0--x--0--0--x--x--0--0--0--x--0--0--x--x--0--0-|0--x--0--0--x--x--0--0--0--x--0--0--x--x--0--0-|
D|--2--x--2--2--x--x--2--2--2--x--2--2--x--x--2--2-|2--x--2--2--x--x--2--2--2--x--2--2--x--x--2--2-|
A|-------------------------------------------------|-----------------------------------------------|
E|-------------------------------------------------|-----------------------------------------------|

    
    G (C)                                                                                                                                                                                                                                                                                                                                                                                                                                                                                                                                                                                             G (C)                                                                                                                                                                                                                                                                                                                                                                                                                                                                                                                                                                                             
E|--3--x--3--3--x--x--3--3--3--x--3--3--x--x--3--3-|2--x--2--2--x--x--2--2--2--x--2--2--x--x--2--2-|
B|--3--x--3--3--x--x--3--3--3--x--3--3--x--x--3--3-|3--x--3--3--x--x--3--3--3--x--3--3--x--x--3--3-|
G|--4--x--4--4--x--x--4--4--4--x--4--4--x--x--4--4-|2--x--2--2--x--x--2--2--2--x--2--2--x--x--2--2-|
D|--5--x--5--5--x--x--5--5--5--x--5--5--x--x--5--5-|4--x--4--4--x--x--4--4--4--x--4--4--x--x--4--4-|
A|-------------------------------------------------|-----------------------------------------------|
E|-------------------------------------------------|-----------------------------------------------|

    
                                                                                                                                                                                                                                                                                                                                                                                                                                                                                                                                                                                                                                                                                                                                                                                                                                                                                                                                                                                                                                                                                                                                                                                              
E|--0--x--0--0--x--x--0--0--0--x--0--0--x--x--0--0-|3--x--3--3--x--x--3--3--3--x--3--3--x--x--3--3-|
B|--1--x--1--1--x--x--1--1--1--x--1--1--x--x--1--1-|0--x--0--0--x--x--0--0--0--x--0--0--x--x--0--0-|
G|--0--x--0--0--x--x--0--0--0--x--0--0--x--x--0--0-|0--x--0--0--x--x--0--0--0--x--0--0--x--x--0--0-|
D|--2--x--2--2--x--x--2--2--2--x--2--2--x--x--2--2-|0--x--0--0--x--x--0--0--0--x--0--0--x--x--0--0-|
A|-------------------------------------------------|-----------------------------------------------|
E|-------------------------------------------------|-----------------------------------------------|

    
                                                                                                                                                                                                                                                                                                                                                                                                                                                                                                                                                                                                                                                                                                                                                                                                                                                                                                                                                                                                                                                                                                                                                                                              
E|--0--x--0--0--x--x--0--0--0--x--0--0--x--x--0--0-|3--x--3--3--x--x--3--3--3--x--3--3--x--x--3--3-|
B|--1--x--1--1--x--x--1--1--1--x--1--1--x--x--1--1-|0--x--0--0--x--x--0--0--0--x--0--0--x--x--0--0-|
G|--0--x--0--0--x--x--0--0--0--x--0--0--x--x--0--0-|0--x--0--0--x--x--0--0--0--x--0--0--x--x--0--0-|
D|--2--x--2--2--x--x--2--2--2--x--2--2--x--x--2--2-|0--x--0--0--x--x--0--0--0--x--0--0--x--x--0--0-|
A|-------------------------------------------------|-----------------------------------------------|
E|-------------------------------------------------|-----------------------------------------------|

    
    D (G)                                                                                                                                                                                                                                                                                                                                                                                                                                                                                                                                                                                             D (G)                                                                                                                                                                                                                                                                                                                                                                                                                                                                                                                                                                                             
E|--2--x--2--2--x--x--2--2--2--x--2--2--x--x--2--2-|0--x--0--0--x--x--0--0--0--x--0--0--x--x--0--0-|
B|--3--x--3--3--x--x--3--3--3--x--3--3--x--x--3--3-|0--x--0--0--x--x--0--0--0--x--0--0--x--x--0--0-|
G|--2--x--2--2--x--x--2--2--2--x--2--2--x--x--2--2-|0--x--0--0--x--x--0--0--0--x--0--0--x--x--0--0-|
D|--0--x--0--0--x--x--0--0--0--x--0--0--x--x--0--0-|2--x--2--2--x--x--2--2--2--x--2--2--x--x--2--2-|
A|-------------------------------------------------|-----------------------------------------------|
E|-------------------------------------------------|-----------------------------------------------|

    
                                                                                                                                                                                                                                                                                                                                                                                                                                                                                                                                                                                                                                                                                                                                                                                                                                                                                                                                                                                                                                                                                                                                                                                              
E|--0--x--0--0--x--x--0--0--0--x--0--0--x--x--0--0-|3--x--3--3--x--x--3--3--3--x--3--3--x--x--3--3-|
B|--1--x--1--1--x--x--1--1--1--x--1--1--x--x--1--1-|0--x--0--0--x--x--0--0--0--x--0--0--x--x--0--0-|
G|--0--x--0--0--x--x--0--0--0--x--0--0--x--x--0--0-|0--x--0--0--x--x--0--0--0--x--0--0--x--x--0--0-|
D|--2--x--2--2--x--x--2--2--2--x--2--2--x--x--2--2-|0--x--0--0--x--x--0--0--0--x--0--0--x--x--0--0-|
A|-------------------------------------------------|-----------------------------------------------|
E|-------------------------------------------------|-----------------------------------------------|

    
                                                                                                                                                                                                                                                                                                                                                                                                                                                                                                                                                                                                                                                                                                                                                                                                                                                                                                                                                                                                                                                                                                                                                                                              
E|--2--x--2--2--x--x--2--2--2--x--2--2--x--x--2--2-|0--x--0--0--x--x--0--0--0--x--0--0--x--x--0--0-|
B|--3--x--3--3--x--x--3--3--3--x--3--3--x--x--3--3-|0--x--0--0--x--x--0--0--0--x--0--0--x--x--0--0-|
G|--2--x--2--2--x--x--2--2--2--x--2--2--x--x--2--2-|0--x--0--0--x--x--0--0--0--x--0--0--x--x--0--0-|
D|--4--x--4--4--x--x--4--4--4--x--4--4--x--x--4--4-|2--x--2--2--x--x--2--2--2--x--2--2--x--x--2--2-|
A|-------------------------------------------------|-----------------------------------------------|
E|-------------------------------------------------|-----------------------------------------------|

    
                                                                                                                                                                                                                                                                                                                                                                                                                                                                                                                                                                                                                                                                                                                                                                                                                                                                                                                                                                                                                                                                                                                                                                                              
E|--0--x--0--0--x--x--0--0--0--x--0--0--x--x--0--0-|3--x--3--3--x--x--3--3--3--x--3--3--x--x--3--3-|
B|--1--x--1--1--x--x--1--1--1--x--1--1--x--x--1--1-|0--x--0--0--x--x--0--0--0--x--0--0--x--x--0--0-|
G|--0--x--0--0--x--x--0--0--0--x--0--0--x--x--0--0-|0--x--0--0--x--x--0--0--0--x--0--0--x--x--0--0-|
D|--2--x--2--2--x--x--2--2--2--x--2--2--x--x--2--2-|0--x--0--0--x--x--0--0--0--x--0--0--x--x--0--0-|
A|-------------------------------------------------|-----------------------------------------------|
E|-------------------------------------------------|-----------------------------------------------|

    
    D (G)                                                                                                                                                                                                                                                                                                                                                                                                                                                                                                                                                                                             D (G)                                                                                                                                                                                                                                                                                                                                                                                                                                                                                                                                                                                             
E|--2--x--2--2--x--x--2--2--2--x--2--2--x--x--2--2-|0--x--0--0--x--x--0--0--0--x--0--0--x--x--0--0-|
B|--3--x--3--3--x--x--3--3--3--x--3--3--x--x--3--3-|0--x--0--0--x--x--0--0--0--x--0--0--x--x--0--0-|
G|--2--x--2--2--x--x--2--2--2--x--2--2--x--x--2--2-|0--x--0--0--x--x--0--0--0--x--0--0--x--x--0--0-|
D|--0--x--0--0--x--x--0--0--0--x--0--0--x--x--0--0-|2--x--2--2--x--x--2--2--2--x--2--2--x--x--2--2-|
A|-------------------------------------------------|-----------------------------------------------|
E|-------------------------------------------------|-----------------------------------------------|

    
                                                                                                                                                                                                                                                                                                                                                                                                                                                                                                                                                                                                                                                                                                                                                                                                                                                                                                                                                                                                                                                                                                                                                                                              
E|--0--x--0--0--x--x--0--0--0--x--0--0--x--x--0--0-|3--x--3--3--x--x--3--3--3--x--3--3--x--x--3--3-|
B|--1--x--1--1--x--x--1--1--1--x--1--1--x--x--1--1-|0--x--0--0--x--x--0--0--0--x--0--0--x--x--0--0-|
G|--0--x--0--0--x--x--0--0--0--x--0--0--x--x--0--0-|0--x--0--0--x--x--0--0--0--x--0--0--x--x--0--0-|
D|--2--x--2--2--x--x--2--2--2--x--2--2--x--x--2--2-|0--x--0--0--x--x--0--0--0--x--0--0--x--x--0--0-|
A|-------------------------------------------------|-----------------------------------------------|
E|-------------------------------------------------|-----------------------------------------------|

    
    D (G)                                                                                                                                                                                                                                                                                                                                                                                                                                                                                                                                                                                             D (G)                                                                                                                                                                                                                                                                                                                                                                                                                                                                                                                                                                                             
E|--2--x--2--2--x--x--2--2--2--x--2--2--x--x--2--2-|0--x--0--0--x--x--0--0--0--x--0--0--x--x--0--0-|
B|--3--x--3--3--x--x--3--3--3--x--3--3--x--x--3--3-|1--x--1--1--x--x--1--1--1--x--1--1--x--x--1--1-|
G|--2--x--2--2--x--x--2--2--2--x--2--2--x--x--2--2-|0--x--0--0--x--x--0--0--0--x--0--0--x--x--0--0-|
D|--0--x--0--0--x--x--0--0--0--x--0--0--x--x--0--0-|2--x--2--2--x--x--2--2--2--x--2--2--x--x--2--2-|
A|-------------------------------------------------|-----------------------------------------------|
E|-------------------------------------------------|-----------------------------------------------|

    
                                                                                                                                                                                                                                                                                                                                                                                                                                                                                                                                                                                                                                                                                                                                                                                                                                                                                                                                                                                                                                                                                                                                                                                              
E|--3--x--3--3--x--x--3--3--3--x--3--3--x--x--3--3-|0--x--0--0--x--x--0--0--0--x--0--0--x--x--0--0-|
B|--0--x--0--0--x--x--0--0--0--x--0--0--x--x--0--0-|1--x--1--1--x--x--1--1--1--x--1--1--x--x--1--1-|
G|--0--x--0--0--x--x--0--0--0--x--0--0--x--x--0--0-|0--x--0--0--x--x--0--0--0--x--0--0--x--x--0--0-|
D|--0--x--0--0--x--x--0--0--0--x--0--0--x--x--0--0-|2--x--2--2--x--x--2--2--2--x--2--2--x--x--2--2-|
A|-------------------------------------------------|-----------------------------------------------|
E|-------------------------------------------------|-----------------------------------------------|

    
                                                                                                                                                                                                                                                                                                                                                                                                                                                                                                                                                                                                                                                                                                                                                                                                                                                                                                                                                                                                                                                                                                                                                                                              
E|--3--x--3--3--x--x--3--3--3--x--3--3--x--x--3--3-|2--x--2--2--x--x--2--2--2--x--2--2--x--x--2--2-|
B|--0--x--0--0--x--x--0--0--0--x--0--0--x--x--0--0-|1--x--1--1--x--x--1--1--1--x--1--1--x--x--1--1-|
G|--0--x--0--0--x--x--0--0--0--x--0--0--x--x--0--0-|2--x--2--2--x--x--2--2--2--x--2--2--x--x--2--2-|
D|--0--x--0--0--x--x--0--0--0--x--0--0--x--x--0--0-|0--x--0--0--x--x--0--0--0--x--0--0--x--x--0--0-|
A|-------------------------------------------------|-----------------------------------------------|
E|-------------------------------------------------|-----------------------------------------------|

    
    Em (Am)                                                                                                                                                                                                                                                                                                                                                                                                                                                                                                                                                                                             Em (Am)                                                                                                                                                                                                                                                                                                                                                                                                                                                                                                                                                                                             
E|--0--x--0--0--x--x--0--0--0--x--0--0--x--x--0--0-|0--x--0--0--x--x--0--0--0--x--0--0--x--x--0--0-|
B|--0--x--0--0--x--x--0--0--0--x--0--0--x--x--0--0-|1--x--1--1--x--x--1--1--1--x--1--1--x--x--1--1-|
G|--0--x--0--0--x--x--0--0--0--x--0--0--x--x--0--0-|0--x--0--0--x--x--0--0--0--x--0--0--x--x--0--0-|
D|--2--x--2--2--x--x--2--2--2--x--2--2--x--x--2--2-|2--x--2--2--x--x--2--2--2--x--2--2--x--x--2--2-|
A|-------------------------------------------------|-----------------------------------------------|
E|-------------------------------------------------|-----------------------------------------------|

About Wonderful World (Israel Kamakawiwo╩╗ole album) : Israel Kamakawiwo'ole released 2007, a decade after his death in 1997 . The album is considered a classic and suggested in some tourist guides as representative of Hawaiian Its music is influenced by genres - hawaiian , reggae.

tabs and chords, guitar tabs, music transcription, music technology, deep learning, music information retrieval, transcribe into tabs & chords, chordify, music renditions, songsterr, reverbnation, tabulature, bollywood chords, ultimate guitar, yousician, guitar lessons, acoustic guitar, electric guitar, guitar tuner, 911 tabs