Guitar Tabs for What A Wonderful World

(/) Slide Up 
 

vers 1    C    Em  F       Em Dm        C    E7    Am       Fm                 G        C
E|--------0-----3--5--5--5--3--1--1--1--0-----------------------------------------------0--
B|-----0--1--1--5--6--------5--3--------1--3--3--3--1--1--1--1--1--1--1--1--1--0--1--3--1--
G|--0-----0-----4--5--------4--2--------0-----1-----2--------1--------1--------0--------0--
D|--------2--------------------0--------2-----0-----2--------1--------1--------0--------2--
A|--------3-----------------------------3-----2-----0--------------------------2--------3--
E|--------------------------------------------0--------------------------------3-----------

vers 2    C    Em  F    Em Dm        C    E7       Am       Fm                 G        C
E|--------------3--5--5--3--1--1--1--0-----------------------------------------------------
B|-----0--1--1--5--6-----5--3--------1--3--3--3--3--1--1--1--1--1--1--1--1--1--0--1--3--1--
G|--0-----0-----4--5-----4--2--------0-----1--------2--------1--------1--------0--------0--
D|--------2-----------------0--------2-----0--------2--------1--------1--------0--------2--
A|--------3--------------------------3-----2--------0--------------------------2--------3--
E|-----------------------------------------0-----------------------------------3-----------

bridge G                             C
E|-----------------------------1--0--0-----0--
B|--0--3--3--3--3--3--3-----3--------1--3-----
G|-----0-----------0-----0-----------0--------
D|-----0-----------0-----------------2--------
A|-----2-----------2-----------------3--------
E|-----3-----------3--------------------------
    
          G                          C
E|-----------------------------1--0--0-----0--
B|--------3--3--3--3--3--3--3--------1--3-----
G|-----0--0-----------0--------------0--------
D|--------0-----------0--------------2--------
A|--------2-----------2--------------3--------
E|--------3-----------3-----------------------

         Am       Em       Am       Em Am       Em    G7     G
E|--0--3--5--5--5--3--0--0--5--5--5--3--5--5--5--3--3--1--0-----
B|--------5--------5--------5--------5--5--------5-----0-----3--
G|--------5--------4--------5--------4--5--------4-----0-----0--
D|-----------------------------------------------------0-----0--
A|-----------------------------------------------------2-----2--
E|-----------------------------------------------------3-----3--

vers 3    C    Em  F       Em Dm        C    E7       Am       Fm                 G        C 
E|--------------3--5--5--5--3--1--1--1--0--------------------------------------------------0--
B|--------1--1--5--6--------5--3--------1--3--3--3--3--1--1--1--1--1--1--1--1--1--0--1--3--1--
G|--0--0--0-----4--5--------4--2--------0-----1--------2--------1--------1--------0--------0--
D|--------2--------------------0--------2-----0--------2--------1--------1--------0--------2--
A|--------3-----------------------------3-----2--------0--------------------------2--------3--
E|--------------------------------------------0-----------------------------------3-----------

ending   Am                    G        C
E|--------0--------------------------------------
B|--1--1--1--1--3--3--1--1--1--0--1--3--1--------
G|--------2--------------------0--------0--------
D|--------2--------------------0--------2--------
A|--------0--------------------2--------3---3/7--
E|-----------------------------3-----------------



tabs and chords, guitar tabs, music contests, music covers, songsterr, reverbnation, renditions, tabulature, bollywood chords, ultimate guitar, yousician, guitar lessons, torrins, fender, gibson, acoustic guitar, electric guitar, youtube covers, gootar, guitar tuner, A-Z tabs, 911 tabs