Guitar Tabs for Someone You Loved - Lewis Capaldi

(/) Slide Up  (\) Slide Down  (h) Hammer On  (p) Pull Off  (b) Bend (r) Release (v) Vibrato (x) Muted

Tabs for Song : 
BPM : 240
Capo at 2nd fret

Play with placed chords in the given order...

C, G, Am, F
Intro/Verse/Chorus
E|-----------------------------------------------------------------------------------------------------
B|--1-----1-----1-----1-----0-----0-----0-----0-----1-----1-----1-----1-----1-----1-----1-----1--------
G|-----0-----------0-----------0-----------0-----------2-----------2-----------2-----------2-----------
D|-----------------------------------------------------------------------------------------------------
A|-----------3-----------3-----------2-----------2-----------0-----------0-----------3-----------3-----
E|--------------------------------------------------------------------------------------------------

Dm, Am, G, G,
Am, Dm, Am, G
Bridge
E|--1-----1-----1-----1--------------------------------------------------------
B|-----3-----------3--------1-----1-----1-----1-----0-----0-----0-----0--------
G|-----------------------------2-----------2-----------0-----------0-----------
D|-----------0-----------0-----------------------------------------------------
A|-----------------------------------0-----------0-----------2-----------2-----
E|-----------------------------------------------------------------------------

E|--------------------------------------------------1-----1-----1-----1-----
B|--0-----0-----0-----0-----1-----1-----1-----1--------3-----------3--------
G|-----0-----------0-----------2-----------2--------------------------------
D|-----------------------------------------------------------0-----------0--
A|-----------2-----------2-----------0-----------0--------------------------
E|--------------------------------------------------------------------------

E|-----------------------------------------
B|--1-----1-----1-----1-----0-----0------0p
G|-----2-----------2-----------0-----------
D|-----------------------------------------
A|-----------0-----------0-----------2-----
E|-----------------------------------------

Paste any tab in acousterr's tab maker and we'll play it !!!
Now supports capo and sound effects for vibrato/pull-off/hammer/bends/mutes etc !!! Checkout help section




tabs and chords, guitar tabs, music transcription, music technology, deep learning, music information retrieval, transcribe into tabs & chords, chordify, music renditions, songsterr, reverbnation, tabulature, bollywood chords, ultimate guitar, yousician, guitar lessons, acoustic guitar, electric guitar, guitar tuner, 911 tabs