Guitar Tabs for Someone You Loved

Capo 1



Song lyrics here 
F|--0-----0-----0-----0--------------------------------------------------------------------------
C|--------------------------0-----0-----0-----0-----1-----1-----1-----1--------------------------
G|-----0-----0-----0-----0--------------------------------------------------2-----2--------0-----
D|-----------------------------0-----0-----0-----0-----2-----2-----2-----2--------------3--------
A|--3-----------------------------------------------0--------------------------3-----3-----------
F|--------------------------3-----------------------------------------------1--------------------

F|-----------------------------------------------------------------------------------------------------------------------------------------------------------------------------------------------------0--------------------0--------------------------------------0--0-----------------------------------0-----------
C|--------------------------------0--------------------1-----1-----1-----1--------------------------------------------------------0--------------------1-----1-----1-----1-----------------------------------------------------3-----------------------3-----------------3--1-----------------------------------------
G|--------0--0-----0-----0-----2-----2--0--0--2--0-----------------------------2-----2--------0-----------0--0-----0-----0-----2-----2--0--0--2--0-----------------------------2-----2--2--0--2--0--0-----------0-----0--0--------------0--------0--------------0--------------2--------2--2--0--2--0--0-----------0--
D|--2-----------2-----2-----2-----------------------2-----2-----2-----2-----2--------------3--------2-----------2-----2-----2-----------------------2-----2-----2-----2-----2--------3--3--3--3--3--3--------2-----2-----------------0--------0--------------2-----------------------3--3--3--3--3--3--3--------2-----
A|-----3-----------------------------------------------0--------------------------3-----3--------------3-----------------------------------------------0--------------------------3-----------------------3-----------------------------------------------0-----------------------3--------------------------3--------
F|-----------------------------3-----------------------------------------------1-----------------------------------------------3-----------------------------------------------1--------------------------------------------------3--------3--------------------------------------------------------------------------

F|-----------0--------------0--0--0--0--0--0-----------------------------------1-----0-----------------1-----0-----------------1-----0-----------------3--3--0-----1-----------1-----0-----------------1--1--0-----------0--0--0--0--0--0--0--------------------------------------------------------
C|--------------3-----------------------------3--3--1--1--1--3--3-----1--1--1--------------------1--1--------------------1--1-----------3-----1--1--1--------------------1--1--------------------1--1-----------3-----------------------------3--3--1--1--1--3--3-----1-----------------------------
G|-----0--0--------------0--------------------------------------------------------------------------------------------0-----------------------------------------------------------------------------------------------0--------------------------------------------------------2--------0-----------
D|--2-----------------0-----------------------------------------------------------------------2-----------------------------------------------------------------------------------------------2-----------------------------------------------------------------------------3--------3--------2-----
A|-----------------------------------------0-----------------------------3-----------------3-----------------------------------------------0-----------------------3-----------------------3-----------------------0-----------------------0-----------------------------3--------3-----------------
F|-----------------3--------------------------------------------1--------------------------------------------------3-----------------------------------------------------------------------------------------------------------------------------------------------1--------------------------------

F|--
C|--
G|--
D|--
A|--
F|--

Song lyrics here 
F|--
C|--
G|--
D|--
A|--
F|--

Use manual mode to free up cursor. Paste any tab in acousterr tab maker and we'll play it !!!








tabs and chords, guitar tabs, music transcription, music technology, deep learning, music information retrieval, transcribe into tabs & chords, chordify, music renditions, songsterr, reverbnation, tabulature, bollywood chords, ultimate guitar, yousician, guitar lessons, acoustic guitar, electric guitar, guitar tuner, 911 tabs