Guitar Tabs for Someone Like You - Adele

[Intro]
E|--------0-----------0-----------0-----------0-----------0-----------0-----------0-----------0--------
B|-----2-----2-----2-----2-----2-----2-----2-----2-----2-----2-----2-----2-----2-----2-----2-----2-----
G|--2-----------2-----------2-----------2-----------1-----------1-----------1-----------1--------------
D|-----------------------------------------------------------------------------------------------------
A|-----------------------------------------------------------------------------------------------------
E|-----------------------------------------------------------------------------------------------------


[Verse]

E|--------2-----------2-----------2-----------2-----------2-----------2-----------2-----------2--------
B|-----2-----2-----2-----2-----2-----2-----2-----2-----3-----3-----3-----3-----3-----3-----3-----3-----
G|--------------------------------------------------2-----------2-----------2-----------2--------------
D|--4-----------4-----------4-----------4--------------------------------------------------------------
A|-----------------------------------------------------------------------------------------------------
E|-----------------------------------------------------------------------------------------------------

        heard               that you're     settled down,   That you
E|--------0-----------0-----------0-----------0-----------0-----------0-----------0-----------0--------
B|-----2-----2-----2-----2-----2-----2-----2-----2-----2-----2-----2-----2-----2-----2-----2-----2-----
G|--2-----------2-----------2-----------2-----------1-----------1-----------1-----------1--------------
D|-----------------------------------------------------------------------------------------------------
A|-----------------------------------------------------------------------------------------------------
E|-----------------------------------------------------------------------------------------------------

            found a girl    and you're      married now,
E|--------2-----------2-----------2-----------2-----------2-----------2-----------2-----------2--------
B|-----2-----2-----2-----2-----2-----2-----2-----2-----3-----3-----3-----3-----3-----3-----3-----3-----
G|--------------------------------------------------2-----------2-----------2-----------2--------------
D|--4-----------4-----------4-----------4--------------------------------------------------------------
A|-----------------------------------------------------------------------------------------------------
E|-----------------------------------------------------------------------------------------------------

          I       heard     that your dreams came true,       Guess she
E|--------0-----------0-----------0-----------0-----------0-----------0-----------0-----------0--------
B|-----2-----2-----2-----2-----2-----2-----2-----2-----2-----2-----2-----2-----2-----2-----2-----2-----
G|--2-----------2-----------2-----------2-----------1-----------1-----------1-----------1--------------
D|-----------------------------------------------------------------------------------------------------
A|-----------------------------------------------------------------------------------------------------
E|-----------------------------------------------------------------------------------------------------

    gave you things           I didnt't give to you,            Old
E|--------2-----------2-----------2-----------2-----------2-----------2-----------2-----------2--------
B|-----2-----2-----2-----2-----2-----2-----2-----2-----3-----3-----3-----3-----3-----3-----3-----3-----
G|--------------------------------------------------2-----------2-----------2-----------2--------------
D|--4-----------4-----------4-----------4--------------------------------------------------------------
A|-----------------------------------------------------------------------------------------------------
E|-----------------------------------------------------------------------------------------------------

            friend,       why are you so shy?               It ain't
E|--------0-----------0-----------0-----------0-----------0-----------0-----------0-----------0--------
B|-----2-----2-----2-----2-----2-----2-----2-----2-----2-----2-----2-----2-----2-----2-----2-----2-----
G|--2-----------2-----------2-----------2-----------1-----------1-----------1-----------1--------------
D|-----------------------------------------------------------------------------------------------------
A|-----------------------------------------------------------------------------------------------------
E|-----------------------------------------------------------------------------------------------------

    you to hold back          or hide         from the light
E|--------2-----------2-----------2-----------2-----------2-----------2-----------2-----------2--------
B|-----2-----2-----2-----2-----2-----2-----2-----2-----3-----3-----3-----3-----3-----3-----3-----3-----
G|--------------------------------------------------2-----------2-----------2-----------2--------------
D|--4-----------4-----------4-----------4--------------------------------------------------------------
A|-----------------------------------------------------------------------------------------------------
E|-----------------------------------------------------------------------------------------------------

This is the same for the 2nd verse and you can play this to the chorus but you
cut each phase in half like this:
E|--------0-----------0-----------0-----------0-----------0-----------0-----------2-----------2--------
B|-----2-----2-----2-----2-----2-----2-----2-----2-----2-----2-----2-----2-----3-----3-----3-----3-----
G|--2-----------2-----------1-----------1-----------------------------------2-----------2--------------
D|--------------------------------------------------4-----------4--------------------------------------
A|-----------------------------------------------------------------------------------------------------
E|-----------------------------------------------------------------------------------------------------


[Bridge]

 I'd hate to turn up etc....       
E|--------0-----------0-----------0-----------0-----------------
B|--------------------------------------------------------3-----
G|-----1-----1-----1-----1-----2-----2-----2-----2-----2-----2--
D|--4-----------4-----------4-----------4-----------0-----------
A|--------------------------------------------------------------
E|--------------------------------------------------------------

I had hoped you'd see my face etc...
E|--------0-----------0-----------0-----------0-----------------------0--------------2--------------4--------
B|--------------------------------------------------------3--------------------------------------------------
G|-----1-----1-----1-----1-----2-----2-----2-----2-----2-----2-----1-----1--------2-----2--------4-----4-----
D|--4-----------4-----------4-----------4-----------0-----------0-----------0--0-----------0--0-----------0--
A|-----------------------------------------------------------------------------------------------------------
E|-----------------------------------------------------------------------------------------------------------

*this part in second bridge.

tabs and chords, guitar tabs, music transcription, music technology, deep learning, music information retrieval, transcribe into tabs & chords, chordify, music renditions, songsterr, reverbnation, tabulature, bollywood chords, ultimate guitar, yousician, guitar lessons, acoustic guitar, electric guitar, guitar tuner, 911 tabs