Guitar Tabs for Adele Someone Like You Intro

(/) Slide Up  (\) Slide Down  (h) Hammer On  (p) Pull Off  (b) Bend (r) Release (v) Vibrato (x) Muted

Tabs for Song : 

          x4
E|-----------------------------------------------------------------------------------------
B|-----------------------------------------------------------------------------------------
G|-----------------------------------------------------------------------------------------
D|-----------0-----------0-----------0-----------0-----------2-----------2-----------2-----
A|--------2-----2-----2-----2-----2-----2-----2-----2-----2-----2-----2-----2-----3-----3--
E|-----3-----------3-----------2-----------2-----------0-----------0-----------3-----------

          4x
E|--------------------------
B|--0-----------0-----------
G|-----0-----0-----0-----0--
D|--------0-----------0-----
A|--------------------------
E|--3-----------2-----------

Paste any tab in acousterr's tab maker and we'll play it !!!
Now supports capo and sound effects for vibrato/pull-off/hammer/bends/mutes etc !!! Checkout help section
tabs and chords, guitar tabs, music contests, music covers, songsterr, reverbnation, renditions, tabulature, bollywood chords, ultimate guitar, yousician, guitar lessons, torrins, fender, gibson, acoustic guitar, electric guitar, youtube covers, gootar, guitar tuner, A-Z tabs, 911 tabs