Guitar Tabs for Soil Soil

(/) Slide Up  (\) Slide Down  (h) Hammer On  (p) Pull Off  (b) Bend (r) Release (v) Vibrato (x) Muted

Tabs for Song : 
BPM : 250
Capo on 3rd fret
Oh and I'm feeling directionless, yes but thats to be expected and I know that best
E|--------------------------------------------------------------------------
B|-----1--------1--------1--------1--------1--------1--------1--------1-----
G|--------0--------0--------0--------0--------2--------2--------2--------2--
D|--------------------------------------------------------------------------
A|--3--------3--------3--------3--------0--------0--------0--------0--------
E|--------------------------------------------------------------------------
In creeps the morning, and another days lost. You've just written wondering and I reply fast.
E|--------------------------------------------------------------------------
B|-----1--------1--------1--------1--------1--------1--------1--------1-----
G|--------0--------0--------0--------0--------2--------2--------2--------2--
D|--------------------------------------------------------------------------
A|--3--------3--------3--------3--------0--------0--------0--------0--------
E|--------------------------------------------------------------------------
All you need to say to me
E|--------------------------------------------------------------------------
B|-----1--------1--------1--------1--------1--------1--------1--------1-----
G|--------0--------0--------0--------0--------2--------2--------2--------2--
D|--------------------------------------------------------------------------
A|--3--------3--------3--------3--------0--------0--------0--------0--------
E|--------------------------------------------------------------------------
All you need to say to me
E|--------------------------------------------------------------------------
B|-----1--------1--------1--------1--------1--------1--------1--------1-----
G|--------0--------0--------0--------0--------2--------2--------2--------2--
D|--------------------------------------------------------------------------
A|--3--------3--------3--------3--------0--------0--------0--------0--------
E|--------------------------------------------------------------------------
Is call, and I'll be curled on the floor hiding out from it all
E|--------------------------------------------------------------------------
B|-----1--------1--------1--------1--------5--------5--------3--------3-----
G|--------0--------0--------0--------0--------0--------0--------0--------0--
D|--------------------------------------------------------------------------
A|--------------------------------------------------------------------------
E|--3--------3--------3--------3--------7--------7--------5--------5--------
And I won't take any other call
E|--------------------------------------------------------------------------
B|-----1--------1--------1--------1--------5--------5--------3--------3-----
G|--------0--------0--------0--------0--------0--------0--------0--------0--
D|--------------------------------------------------------------------------
A|--------------------------------------------------------------------------
E|--3--------3--------3--------3--------7--------7--------5--------5--------

E|--------------------------------------------------------------------------
B|-----1--------1--------1--------1--------1--------1--------1--------1-----
G|--------0--------0--------0--------0--------0--------0--------0--------0--
D|--------------------------------------------------------------------------
A|--------------------------------------------------------------------------
E|--3--------3--------3--------3--------3--------3--------3--------3--------
I feel like a fool so I'm going to stop troubling you. Buried in my yard, a letter to send to you
E|--------------------------------------------------------------------------
B|-----1--------1--------1--------1--------1--------1--------1--------1-----
G|--------0--------0--------0--------0--------2--------2--------2--------2--
D|--------------------------------------------------------------------------
A|--3--------3--------3--------3--------0--------0--------0--------0--------
E|--------------------------------------------------------------------------
And if I forget, or God forbid die to soon. Hope that you'd hear me know that I wrote to you
E|--------------------------------------------------------------------------
B|-----1--------1--------1--------1--------1--------1--------1--------1-----
G|--------0--------0--------0--------0--------2--------2--------2--------2--
D|--------------------------------------------------------------------------
A|--3--------3--------3--------3--------0--------0--------0--------0--------
E|--------------------------------------------------------------------------
All you need to say to me
E|--------------------------------------------------------------------------
B|-----1--------1--------1--------1--------1--------1--------1--------1-----
G|--------0--------0--------0--------0--------2--------2--------2--------2--
D|--------------------------------------------------------------------------
A|--3--------3--------3--------3--------0--------0--------0--------0--------
E|--------------------------------------------------------------------------
All you need to say to me
E|--------------------------------------------------------------------------
B|-----1--------1--------1--------1--------1--------1--------1--------1-----
G|--------0--------0--------0--------0--------2--------2--------2--------2--
D|--------------------------------------------------------------------------
A|--3--------3--------3--------3--------0--------0--------0--------0--------
E|--------------------------------------------------------------------------
Is call, and I'll be curled on the floor hiding out from it all
E|--------------------------------------------------------------------------
B|-----1--------1--------1--------1--------5--------5--------3--------3-----
G|--------0--------0--------0--------0--------0--------0--------0--------0--
D|--------------------------------------------------------------------------
A|--------------------------------------------------------------------------
E|--3--------3--------3--------3--------7--------7--------5--------5--------
And I won't take any other call
E|--------------------------------------------------------------------------
B|-----1--------1--------1--------1--------5--------5--------3--------3-----
G|--------0--------0--------0--------0--------0--------0--------0--------0--
D|--------------------------------------------------------------------------
A|--------------------------------------------------------------------------
E|--3--------3--------3--------3--------7--------7--------5--------5--------

E|--------------------------------------------------------------------
B|-----1--------1--------1--------1--------1--------1--------1--------
G|--------0--------0--------0--------0--------0--------0--------0-----
D|--------------------------------------------------------------------
A|-----------------------------------------------------------------3--
E|--3--------3--------3--------3--------3--------3--------3-----------






Use manual mode to free up cursor. Paste any tab in acousterr tab maker and we'll play it !!!
tabs and chords, guitar tabs, music transcription, music technology, deep learning, music information retrieval, transcribe into tabs & chords, chordify, music renditions, songsterr, reverbnation, tabulature, bollywood chords, ultimate guitar, yousician, guitar lessons, acoustic guitar, electric guitar, guitar tuner, 911 tabs