Bass Tabs for Smother

(/) Slide Up  (\) Slide Down  (h) Hammer On  (p) Pull Off  (b) Bend (r) Release (v) Vibrato (x) Muted

Tabs for Smother (Drop Db Tuning): 

Main Riff
F|--------------------------------------------------------------------------------------------------
C|--------------------------------------------------------------------------------------------------
G|--3-----3-----------------------------------------3-----3-----------------------------------------
C|-----------5-----5--5--3--6-----6--6-----5--3--0-----------5-----5--5--3--6-----6--6-----5--3--0--

Main Riff (Variant behind the Solo and final Verse)
F|--------------------------------------------------------------------------------------------------
C|--------------------------------------------------------------------------------------------------
G|--3-----3--------------------------------3--6--5--3-----3--------------------------------3--6--5--
C|-----------5-----5--5--3--6-----6--6-----------------------5-----5--5--3--6-----6--6--------------

Chorus
F|--------------------------------------------------
C|--------------------------------------------------
G|--------------------------------------------------
C|--6--6--6--5------0h-3p0--6-----6--5------0h-3p0--

F|--------------------------------------------------
C|--------------------------------------------------
G|--------------------------------------------------
C|--6-----6--5------0h-3p0--3-----3--5------0h-6p0--

tabs and chords, guitar tabs, music transcription, music technology, deep learning, music information retrieval, transcribe into tabs & chords, chordify, music renditions, songsterr, reverbnation, tabulature, bollywood chords, ultimate guitar, yousician, guitar lessons, acoustic guitar, electric guitar, guitar tuner, 911 tabs