Guitar Tabs for Sing - Goose House

(/) Slide Up  (\) Slide Down  (h) Hammer On  (p) Pull Off  (b) Bend (r) Release (v) Vibrato

Tabs for Song : Sing - by Goose House
Capo 2nd fret

Song lyrics here
E|-----------------------3-----------------------------3-----------------------------3-----------------------------------
B|--1-----1------1h---------1-----1-----1------1h---------1-----1-----1------1h---------1-----1-----1-----1------0h1-----
G|-----0-----0--------0--------0-----0-----0--------0--------0-----0-----0--------0--------0-----0-----0-----0--------0--
D|--3------------0h1--------------0------------0h1--------------3------------0h1--------------0--------------------------
A|--------------------------------------------------------------------------------------------------------3--------------
E|-----------------------------------------------------------------------------------------------------------------------

Song lyrics here
E|------------------------3-----------------------------3-----------------------------3--------------------------------
B|--1-----1------1h---------1-----1-----1------1h---------1-----1-----1------1h---------1-----1-----1-----1-----1-----
G|-----0-----0--------0--------0-----0-----0--------0--------0-----0-----0--------0--------0-----0-----0--------0-----
D|--3------------0h1--------------0------------0h1--------------3------------0h1--------------0--------------0-----0--
A|--------------------------------------------------------------------------------------------------------3-----------
E|--------------------------------------------------------------------------------------------------------------------


E|--
B|--
G|--
D|--
A|--
E|--


Add more lines by placing cursor below and adding notes
tabs and chords, guitar tabs, music transcription, music technology, deep learning, music information retrieval, transcribe into tabs & chords, chordify, music renditions, songsterr, reverbnation, tabulature, bollywood chords, ultimate guitar, yousician, guitar lessons, acoustic guitar, electric guitar, guitar tuner, 911 tabs