Guitar Tabs for Sing For You

capo 1st fret
e|--------------------------------2-----------------0--------------2----------|
B|--0-----------0--------------0--------0-----------------------------3-------|
G|--------0-----------------0-----------------0-----------------0-------------|
D|-----2-----2-----------4-----4-----------2-----2-----------4----------------|
A|--3-----------3-----------------------3-------------------------------------|
E|--------------------0-----------------------------------0-------------------|

Nae nargeun gitareul deureo...
capo 1st fret
e|-----------------0--------------------------------------0--------------2-------------------|
B|-----------0--------------------3-----------------0-----------------------3----------------|
G|--------0--------------------2-----------------0--------------------0--------2--1----------|
D|-----2--------------------0-----------------2--------------------4-----------2--0----------|
A|--3-----------3--------2-----------2-----3-----------3-------------------------------------|
E|--------------------------------------------------------------0--------------2--1----------|

Norae hana mandeun cheok...
capo 1st fret
e|-----------------0-----------------------------3----------------------------|
B|-----------0--------------------0--------1--------1--1--0--------1--0-------|
G|--------0--------------2-----2-----1--------0--------2--------0-----0-------|
D|-----2--------------------2--------------------2-----0-----0-----2--0-------|
A|--3-----------3--------------------------0--------------------------2-------|
E|-----------------------0--------------------------------3-----------3-------|

Neomu saranghajiman...
capo 1st fret
e|-----------------0--------------0-----------------0---------0h2--2----------------------|
B|--0--------------------3-----------3-----0-----------0--------------3-------------------|
G|--------0--------------------2-----------------0-----------------------4-----2--1-------|
D|-----2-----2--------------0-----------------2--------------------------------2--0-------|
A|--3-----------3--------2-----------------3----------------------------------------------|
E|------------------------------------------------------------0----------------2--1-------|

Oneureun yonggi naeseo...
capo 1st fret
e|-----------------0-----------------------------3--------------3----------------------------|
B|--0-----------------------------0--------1--------1--------1--------0--------1--0----------|
G|--------0--------------2-----2-----1--------0-----------2-----------------0--2--0----------|
D|-----2-----2--------------2--------------------2-----0-----------------0-------------------|
A|--3-----------3--------------------------0-------------------------------------------------|
E|-----------------------0--------------------------------------------3-----------3----------|

The way you cry...
capo 1st fret
e|--------------------0-----3-----2----------------------------|
B|-----------------0--------3-----3--3--------3--------3-------|
G|--------------0--------------2-----------2-----------------0-|
D|-----------2-----------0--------------0---------4h5-----4----|
A|--2----h3--------------------------2-------------------------|
E|------------------------------------------------0------------|
capo1st fret
e|--0-----------3--------2----------------------------|
B|-----------0--------3-----3--------3--------3-------|
G|--------0--------2--------------2-----------------0-|
D|-----2--------0--------------0---------4h5-----4----|
A|--3-----------------------2-------------------------|
E|---------------------------------------0------------|

capo 1st fret
e|--------------------0-----3-----2--------------------7--8--7--5--------7--8--7--5----------|
B|-----------------0--------3-----3-----------0--------5--------5--------5--------5----------|
G|--------------0--------------2-----2-----2-----1-----5-----------------5-------------------|
D|-----------2-----------0--------------2----------------------------------------------------|
A|--2----h3--------------------------------------------------------------5--------5----------|
E|-----------------------------------0-----------------5--------5----------------------------|

Sing for you....

(strum)
capo 1st fret
e|--00000---00000----000------3-----------------(3)-----------------------|
B|--00000---33333----111------1--------------0--------1--0----------------|
G|--00000---22222----000------2-let-ring---------0----2--0----------------|
D|--22222---00000----222------0----------------0--------------------------|
A|--33333---22222----000--------------------------------------------------|
E|--------------------------------------------3----------3----------------|

Jogeum useupjyo naegen
capo 1st fret
e|--0--------------0-----------------0--------0--------0---------3h5--2-------------------------|
B|--------------------0-----3-----------3-----------------0--------------5--------3-------------|
G|--------0-----------------------2-----------------0--------------------------0-----2--1-------|
D|-----2-----2--------2--------0-----------------2--------------------------4--------2--0-------|
A|--3-----------3-----------2--------2--------3-------------------------------------------------|
E|---------------------------------------------------------------0----0--------------2--1-------|

Sasireun geudae pume
capo 1st fret
e|--0--------------0-----------------------------3--------------3----------------------------|
B|--------------------0-----------0--------1--------1--------1--------0--------1--0----------|
G|--------0--------------2-----2-----1--------0-----------2-----------------0--2--0----------|
D|-----2-----2--------------2--------------------2-----0-----------------0-------------------|
A|--3-----------3--------------------------0-------------------------------------------------|
E|-----------------------0--------------------------------------------3-----------3----------|

The way you cry...
capo1st fret
e|--------------------0-----3-----2----------------------------|
B|-----------------0--------3-----3--3--------3--------3-------|
G|--------------0--------------2-----------2-----------------0-|
D|-----------2-----------0--------------0---------4h5-----4----|
A|--2----h3--------------------------2-------------------------|
E|------------------------------------------------0------------|
capo 1st fret
e|--0-----------3--------2----------------------------|
B|-----------0--------3-----3--------3--------3-------|
G|--------0--------2--------------2-----------------0-|
D|-----2--------0--------------0---------4h5-----4----|
A|--3-----------------------2-------------------------|
E|---------------------------------------0------------|

capo 1st fret
e|--------------------0-----3-----2--------------------7--8--7--5--------7--8--7--5-------|
B|-----------------0--------3-----3-----------0--------5--------5--------5--------5-------|
G|--------------0--------------2-----2-----2-----1-----5-----------------5----------------|
D|-----------2-----------0--------------2-------------------------------------------------|
A|--2----h3--------------------------------------------------------------5--------5-------|
E|-----------------------------------0-----------------5--------5-------------------------|

Sing for you....

(strum)
capo 1st fret
e|--000000---00000----000---3--------------(3)--------------------|
B|--000000---33333----111---1-----------0--------1--0-------------|
G|--000000---22222----000---2-let-ring------0----2--0-------------|
D|--222222---00000----222---0-------------0-----------------------|
A|--333333---22222----000-----------------------------------------|
E|--------------------------------------3-----------3-------------| 
tabs and chords, guitar tabs, music transcription, music technology, deep learning, music information retrieval, transcribe into tabs & chords, chordify, music renditions, songsterr, reverbnation, tabulature, bollywood chords, ultimate guitar, yousician, guitar lessons, acoustic guitar, electric guitar, guitar tuner, 911 tabs