Guitar Tabs for Simple Gerudo Valey

(/) Slide Up  (\) Slide Down  (h) Hammer On  (p) Pull Off  (b) Bend (r) Release (v) Vibrato (x) Muted

Tabs for Song : Simple Gerudo Valley
E|--------------2--5--1--4--7--9-----------2--2--2-----2--2-----2--2--2-----2--2--
B|-----------3--------------------------------------------------------------------
G|--------1-----------------------------------------------------------------------
D|-----0--------------------------------------------------------------------------
A|--4-----------------------------------------------------------------------------
E|--------------------------------------------------------------------------------

E|--2--2--2-----2--2-----2--2--2-----2--2-----0--0--0-----0--0-----0--0--0-----0--0--
B|-----------------------------------------------------------------------------------
G|-----------------------------------------------------------------------------------
D|-----------------------------------------------------------------------------------
A|-----------------------------------------------------------------------------------
E|-----------------------------------------------------------------------------------

E|--1--1--1-----1--1-----1--1--1-----1--1--------2--4--5-----2--4--5--------2--4--5-----2--4--5--
B|--------------------------------------------2-----------2--------------3-----------3-----------
G|-----------------------------------------------------------------------------------------------
D|-----------------------------------------------------------------------------------------------
A|-----------------------------------------------------------------------------------------------
E|-----------------------------------------------------------------------------------------------

E|--------0--2--4-----0--2--4--------2--4--2--1--------2--4--5-----2--4--5--------2--4--5-----2--4--5--
B|-----0-----------0--------------------------------2-----------2--------------3-----------3-----------
G|-----------------------------------------------------------------------------------------------------
D|-----------------------------------------------------------------------------------------------------
A|-----------------------------------------------------------------------------------------------------
E|-----------------------------------------------------------------------------------------------------

E|-----0--2--4-----0--2--4-----5--7--5--4-----
B|--0-----------0-----------------------------
G|--------------------------------------------
D|--------------------------------------------
A|--------------------------------------------
E|--------------------------------------------

E|-----5--4--2-----0-----0--2--0--------------4--2--0-----------0--------
B|--2-----------2-----------------3--------0-----------3--2--3-----3--2--
G|-----------------------------------------------------------------------
D|-----------------------------------------------------------------------
A|-----------------------------------------------------------------------
E|-----------------------------------------------------------------------

E|-----5--4--2-----0--0--2--0--------------0--2--0--------------5--4--5--4--------0-----------
B|--2-----------2--------------3--------3-----------3--2--------------------2--------3--2--3--
G|--------------------------------------------------------------------------------------------
D|--------------------------------------------------------------------------------------------
A|--------------------------------------------------------------------------------------------
E|--------------------------------------------------------------------------------------------

E|--4--2--4--0-----------0-----------------------------------------------------------------------4--2-----
B|--------------3--2--3-----3--2-----------------2-----------2-----------3-----------3--3--0-----------0--
G|-----------------------------------------1--2--------1--2--------1--2--------1--2-----------------------
D|--------------------------------------4-----------4-----------4-----------4-----------------------------
A|--------------------------------------------------------------------------------------------------------
E|--------------------------------------------------------------------------------------------------------

E|-----------5--4--5--------2--4--5--7--5--4--5--4--5--------4--2--4--------0--2--4--5--4--2--
B|--0--2--------------------------------------------------------------------------------------
G|--------------------------------------------------------------------------------------------
D|--------------------------------------------------------------------------------------------
A|--------------------------------------------------------------------------------------------
E|--------------------------------------------------------------------------------------------

E|--4--2--1-----5--4--5-----2--4--5--7--5--4--5--4--5--------7--5--7-----4--5--7--9--10-12-
B|-----------------------------------------------------------------------------------------
G|-----------------------------------------------------------------------------------------
D|-----------------------------------------------------------------------------------------
A|-----------------------------------------------------------------------------------------
E|-----------------------------------------------------------------------------------------

E|--9--10-9--------------------------------------------------------------------------------------0--------
B|-----------------------------------------------------------------------0-----0-----0-----0--3-----3--2--
G|-----------------------2--1--2-----2--1--2-----2--1--2-----2--1--2--------3-----------3-----------------
D|--------------------4-----------4-----------0-----------0-----------2-----------2-----------------------
A|--------------------------------------------------------------------------------------------------------
E|--------------------------------------------------------------------------------------------------------

E|-----2--4--5-----2--4--5-----2--4--5-----2--4--5-----0--2--4-----0--2--4--------2--4--2--1--
B|--2-----------2-----------3-----------3-----------0-----------0-----------------------------
G|--------------------------------------------------------------------------------------------
D|--------------------------------------------------------------------------------------------
A|--------------------------------------------------------------------------------------------
E|--------------------------------------------------------------------------------------------

E|--
B|--
G|--
D|--
A|--
E|--


Song lyrics here
E|--
B|--
G|--
D|--
A|--
E|--

Song lyrics here
E|--
B|--
G|--
D|--
A|--
E|--

Paste any tab in acousterr's tab maker and we'll play it !!!
Now supports capo and sound effects for vibrato/pull-off/hammer/bends/mutes etc !!! Checkout help section
tabs and chords, guitar tabs, music transcription, music technology, deep learning, music information retrieval, transcribe into tabs & chords, chordify, music renditions, songsterr, reverbnation, tabulature, bollywood chords, ultimate guitar, yousician, guitar lessons, acoustic guitar, electric guitar, guitar tuner, 911 tabs