Guitar Tabs for Gerudo Valley

(/) Slide Up  (\) Slide Down  (h) Hammer On  (p) Pull Off  (b) Bend (r) Release (v) Vibrato (x) Muted

Tabs for Song : 

Song lyrics here
E|-----------------5-----4--7----9---------
B|--------------7-----6--------------------
G|--------4--7-----------------------------
D|-----6-----------------------------------
A|--4--------------------------------------
E|-----------------------------------------

E|--------------------------------------------------------------------------------------------------
B|-----7--9--10----7--9--10----7--9--10----7--9--10----5--7--9-----5--7--9--9--10-7--6--10-12-10-9--
G|--6-----------6-----------7-----------7-----------------------------------------------------------
D|--------------------------------------------------9-----------9-----------------------------------
A|--------------------------------------------------------------------------------------------------
E|--------------------------------------------------------------------------------------------------

E|--------------------------------------------------------------------------------
B|-----10-9--7-----5---5h-7p5--------9--7-----------------------------7--5--------
G|--6-----------6--------------7-----------9--7--6---7h-9p7--6--------------7--6--
D|--------------------------------9-----------------------------7--9--------------
A|--------------------------------------------------------------------------------
E|--------------------------------------------------------------------------------

E|-----------------------------------------------------------
B|--10-9--10-9-----5-----------9--7--9--7--------------------
G|--------------6-----7--6--7-----------------7---7h-9p7--6--
D|-----------------------------------------9-----------------
A|-----------------------------------------------------------
E|-----------------------------------------------------------

E|--------------------------------------------------------------------
B|--------------------------------------------------------9--7--------
G|-----------6-----------6-----------7-----------7--------------4--6--
D|-----6--7--------6--7--------6--7--------6--7-----7--9--------------
A|--9-----------9-----------9-----------9-----------------------------
E|--------------------------------------------------------------------

E|--------------------7-----------------------------------------------------------------
B|--10-9--10-7--9--10----------10-9--10-9--10-9--7--9-----------7--9--10-9--7--9--7--6--
G|-----------------------------------------------------9--------------------------------
D|--------------------------------------------------------------------------------------
A|--------------------------------------------------------------------------------------
E|--------------------------------------------------------------------------------------

E|--------------------7--------------------------------------------9--10-12-10p-9p7--9--
B|--10-9--10-7--9--10----10-9--10-9--10----------12-10-12-9--10-12----------------------
G|--------------------------------------------------------------------------------------
D|--------------------------------------------------------------------------------------
A|--------------------------------------------------------------------------------------
E|--------------------------------------------------------------------------------------

E|--------------------------------------------------------------------------------------
B|--------------------------------------------------------------------------------------
G|--------------------------------------------------------------------------7--9--7--6--
D|-----7--6--7-----7--6--7-----7--6--7-----7--6--7-----9--8--9-----9--8--9--------------
A|--9-----------9-----------5-----------5-----------7-----------7-----------------------
E|--------------------------------------------------------------------------------------


Song lyrics here
E|--
B|--
G|--
D|--
A|--
E|--

Paste any tab in acousterr's tab maker and we'll play it !!!
Now supports capo and sound effects for vibrato/pull-off/hammer/bends/mutes etc !!! Checkout help section
tabs and chords, guitar tabs, music contests, music covers, songsterr, reverbnation, renditions, tabulature, bollywood chords, ultimate guitar, yousician, guitar lessons, torrins, fender, gibson, acoustic guitar, electric guitar, youtube covers, gootar, guitar tuner, A-Z tabs, 911 tabs