Guitar Tabs for Silent Night (a)

(/) Slide Up  (\) Slide Down  (h) Hammer On  (p) Pull Off  (b) Bend (r) Release (v) Vibrato (x) Muted

Tabs for Song : Silent Night

Si  ----lent Night, Ho ly  Night. All is calm, all is bright
E|-----------------------------------------------------
B|--------------------------------12-12-9-----10-10----
G|--9--11r9--------9--11r9--------9-----7-----7-----9--
D|-----------11----11-------11----9-----9-----7-----11-
A|--12-------12----12-------12-------------------------
E|-----------------------------------------------------
   Round yon' virgin mother and child.  Holy infant so tender and mild
E|--------------------------------------------------------------------
B|--------------------------------------------------------------------
G|--11----11-14-13-11--9h11h9--6--------11-11-14-13-11--9h11h9-----6--
D|--12----12-16-14-12-11h12h11-7--------12-12-16-14-12-11h12h11----7--
A|--------------------------------------------------------------------
E|--------------------------------------------------------------------
  Sleep in heavenly peace.  Sleep in heavenly peace.
E|--------10-------------------------------------------5--
B|--12-12-9--12-9--10/14----10----------------------5--5--
G|--9-----9---------9/---------9-----9-----------6-----6--
D|--9-----9--------11/------------11-9--12-9--7--------7--
A|--------------------------------------------------------
E|--------------------------------------------------------



Paste any tab in acousterr's tab maker and we'll play it !!!
Now supports capo and sound effects for vibrato/pull-off/hammer/bends/mutes etc !!! Checkout help section
tabs and chords, guitar tabs, music transcription, music technology, deep learning, music information retrieval, transcribe into tabs & chords, chordify, music renditions, songsterr, reverbnation, tabulature, bollywood chords, ultimate guitar, yousician, guitar lessons, acoustic guitar, electric guitar, guitar tuner, 911 tabs