Guitar Tabs for Silent Night

(/) Slide Up  (\) Slide Down  (h) Hammer On  (p) Pull Off  (b) Bend (r) Release (v) Vibrato (x) Muted

Tabs for Song : 
    G                                   G                                   D                 D 
Song lyrics here 
E|--------0-----------------------------------0-----------------------------5-----------5-----2--------------
B|--3-----------3-----0-----------------3-----------3-----0--------------------------------------------------
G|-----------------------------------------------------------------------------------------------------------
D|-----------------------------------------------------------------------------------------------------------
A|-----------------------------------------------------------------------------------------------------------
E|-----------------------------------------------------------------------------------------------------------
       G                 G                 C                 C                 G                 G              
E|-----3-----------3-----------------------0-----------0-----3-----2-----0-----------0-----------------------
B|-----------------------3-----------------------------------------------------3-----------3-----0-----------
G|-----------------------------------------------------------------------------------------------------------
D|-----------------------------------------------------------------------------------------------------------
A|-----------------------------------------------------------------------------------------------------------
E|-----------------------------------------------------------------------------------------------------------
          C                 C                 G                 G 
E|--------0-----------0-----3-----2-----0-----------0--------------------------
B|--------------------------------------------3-----------3-----0--------------
G|-----------------------------------------------------------------------------
D|-----------------------------------------------------------------------------
A|-----------------------------------------------------------------------------
E|-----------------------------------------------------------------------------
    D                 B7                G                 EM                   G                 D                 G
E|--5-----------5-----8-----5-----2-----3-----------------7--------------------3----------------------------------------------------
B|-----------------------------------------------------------------------------------3-----0-----3-----1-----------------------------
G|-----------------------------------------------------------------------------------------------------------2-----0-----------------
D|-----------------------------------------------------------------------------------------------------------------------------------
A|-----------------------------------------------------------------------------------------------------------------------------------
E|-----------------------------------------------------------------------------------------------------------------------------------

Song lyrics here
E|--
B|--
G|--
D|--
A|--
E|--

Paste any tab in acousterr's tab maker and we'll play it !!!
Now supports capo and sound effects for vibrato/pull-off/hammer/bends/mutes etc !!! Checkout help section
tabs and chords, guitar tabs, music transcription, music technology, deep learning, music information retrieval, transcribe into tabs & chords, chordify, music renditions, songsterr, reverbnation, tabulature, bollywood chords, ultimate guitar, yousician, guitar lessons, acoustic guitar, electric guitar, guitar tuner, 911 tabs