Guitar Tabs for Signum Regis - Unfold The Mystery Sliding Arpeggios Solo

(/) Slide Up  (\) Slide Down  (h) Hammer On  (p) Pull Off  (b) Bend (r) Release (v) Vibrato (x) Muted

Tabs for Song : 

Song lyrics here
E|-----------------------15-19p15-------------------
B|--------------------17----------17----------------
G|--------------12/16----------------16\12----------
D|-----------14----------------------------14-------
A|--------14----------------------------------14----
E|--12h15----------------------------------------15-

E|-----------------------15-19p15-------------------
B|--------------------16----------16----------------
G|-----------------16----------------16-------------
D|--------------17----------------------17----------
A|--------14h18----------------------------18p14----
E|--11h15----------------------------------------15-

E|-----------------------19-22p19-------------------
B|--------------------20----------20----------------
G|--------------16/19----------------19\16----------
D|-----------17----------------------------17-------
A|--------17----------------------------------17----
E|--15h19----------------------------------------19-

E|-----------------------21-24p21----------------------------------------21-24p21-------------------
B|--------------------22----------22----------------------------------22----------22----------------
G|--------------18/21----------------21\18----------------------18/21----------------21\18----------
D|-----------19----------------------------19----------------19----------------------------19-------
A|--------19----------------------------------19----------19----------------------------------19----
E|--17h21----------------------------------------21-17h21----------------------------------------21-

E|-----------------------20-24p20-------------------
B|--------------------22----------22----------------
G|--------------17/21----------------21\17----------
D|-----------19----------------------------19-------
A|--------19----------------------------------19----
E|--17h20----------------------------------------20-

E|-----------------------19-24p19-------------------
B|--------------------22----------22----------------
G|--------------16/21----------------21\16----------
D|-----------19----------------------------19-------
A|--------19----------------------------------19----
E|--17h19----------------------------------------19-

E|-----------------------15-19p15----------------------------------------15-19p15-------------------
B|--------------------17----------17----------------------------------17----------17----------------
G|--------------12/16----------------16\12----------------------12/16----------------16\12----------
D|-----------14----------------------------14----------------14----------------------------14-------
A|--------14----------------------------------14----------14----------------------------------14----
E|--12h15----------------------------------------15-12h15----------------------------------------15-

E|-----------------------15-18p15----------
B|--------------------17----------17-------
G|-----------------15----------------15----
D|--------------17----------------------17v
A|--------13h18----------------------------
E|--12h15----------------------------------

E|--------------------------------------------------
B|--------------------16h19-22-19p16----------------
G|--------------------------------------------------
D|-----------16h19-22----------------22-19p16-------
A|--------------------------------------------------
E|--17h20-23----------------------------------23-20-

E|-----------------------------------------------------14-19p14-19p14----14h19-23-19p14-19p14----14----
B|--------------------------19p16-19p16----16-19p16-16----------------16----------------------16----20v
G|-----------16-20p16----16-------------16-------------------------------------------------------------
D|--------16----------16-------------------------------------------------------------------------------
A|--14h18----------------------------------------------------------------------------------------------
E|-----------------------------------------------------------------------------------------------------










Paste any tab in acousterr's tab maker and we'll play it !!!
Now supports capo and sound effects for vibrato/pull-off/hammer/bends/mutes etc !!! Checkout help section
tabs and chords, guitar tabs, music transcription, music technology, deep learning, music information retrieval, transcribe into tabs & chords, chordify, music renditions, songsterr, reverbnation, tabulature, bollywood chords, ultimate guitar, yousician, guitar lessons, acoustic guitar, electric guitar, guitar tuner, 911 tabs