Easy Arpeggios Theory - Scales And Arpeggios - Guitar Tabs

Chords
    
                                                                                                                                                                                                                                                                                                                                                                                                                                                                                                                                                                                                 
E|-------------------------|
B|-------------------------|
G|--------5----------------|
D|--------5----------------|
A|--------3----------------|
E|-------------------------|

    
                                                                                                                                                                                                                                                                                                                                                                                                                                                                                                                                                                                                 
E|-------------------------|
B|-------------------------|
G|--5----------------------|
D|--5----------------------|
A|--3----------------------|
E|-------------------------|

    
                                                                                                                                                                                                                                                                                                                                                                                                                                                                                                                                                                                                 
E|-------------------------|
B|-----------------------5-|
G|--------------4--5--7----|
D|--------5--7-------------|
A|--7--8-------------------|
E|-------------------------|

    
                                                                                                                                                                                                                                                                                                                                                                                                                                                                                                                                                                                                                                                                                                                                                                                                                                                                                                                                                                                                                                                                                                                                                                                              
E|--------2----------------|-----------------------|
B|--1-----3----------------|-----------------------|
G|--0-----2----------------|-----------------------|
D|--2-----0----------------|4----------------------|
A|--3----------------------|4----------------------|
E|-------------------------|2----------------------|

    
                                                                                                                                                                                                                                                                                                                                                                                                                                                                                                                                                                                                 
E|-------------------------|
B|-------------------------|
G|-------------------------|
D|--7----------------------|
A|--7----------------------|
E|--5----------------------|

    
                                                                                                                                                                                                                                                                                                                                                                                                                                                                                                                                                                                                                                                                                                                                                                                                                                                                                                                                                                                                                                                                                                                                                                                              
E|-------------------------|-----------------------------|
B|-------------------------|-----------------------------|
G|-------------------------|------------------7----------|
D|--5----------------------|7-----7-----9----------------|
A|--5----------------------|-----------------------------|
E|--3----------------------|-----------------------------|

    
                                                                                                                                                                                                                                                                                                                                                                                                                                                                                                                                                                                                                                                                                                                                                                                                                                                                                                                                                                                                                                                                                                                                                                                              
E|-------------------------------|-----------------------------------------------|
B|-------------------------------|-----------------------------------------------|
G|--------6-----7-----9----------|-----------------------------------------------|
D|--9----------------------------|-----------------------------------------------|
A|-------------------------------|------------------------5--5-----5--5--5-----5-|
E|-------------------------------|2--2-----2--2--2-----2-------------------------|

    
                                                                                                                                                                                                                                                                                                                                                                                                                                                                                                                                                                                                                                                                                                                                                                                                                                                                                                                                                                                                                                                                                                                                                                                              
E|-------------------------------------------------|-----------------------------------------------|
B|-------------------------------------------------|-----------------------------------------------|
G|-------------------------------------------------|-----------------------------------------------|
D|--------------------------4--4-----4--4--4-----4-|-----------------------------------------------|
A|-------------------------------------------------|------------------------5--5-----5--5--5-----5-|
E|--2--2-----2--2--2-----2-------------------------|2--2-----2--2--2-----2-------------------------|

    
                                                                                                                                                                                                                                                                                                                                                                                                                                                                                                                                                                                                                                                                                                                                                                                                                                                                                                                                                                                                                                                                                                                                                                                              
E|-------------------------------------------------|-----------------------------------------------|
B|-------------------------------------------------|-----------------------------------------------|
G|-------------------------------------------------|-----------------------------------------------|
D|--------------------------4--4-----4--4--4-----4-|------------------------4--4-----4--4--4-----4-|
A|-------------------------------------------------|5--5-----5--5--5-----5-------------------------|
E|--2--2-----2--2--2-----2-------------------------|-----------------------------------------------|

    
                                                                                                                                                                                                                                                                                                                                                                                                                                                                                                                                                                                                                                                                                                                                                                                                                                                                                                                                                                                                                                                                                                                                                                                              
E|-------------------------------------------------|-----------------------------------------------|
B|-------------------------------------------------|-----------------------------------------------|
G|-------------------------------------------------|-----------------------------------------------|
D|--3--3-----3--3--3-----3--4--4-----4--4--4-----4-|7--7-----7--7--7-----7--4--4-----4--4--4-----4-|
A|-------------------------------------------------|5--5-----5--5--5-----5--6--6-----6--6--6-----6-|
E|-------------------------------------------------|-----------------------------------------------|

    
                                                                                                                                                                                                                                                                                                                                                                                                                                                                                                                                                                                                                                                                                                                                                                                                                                                                                                                                                                                                                                                                                                                                                                                              
E|-------------------------------------------------|-----------------------------------------------|
B|-------------------------------------------------|-----------------------------------------------|
G|-------------------------------------------------|-----------------------------------------------|
D|--9--9-----9--9--9-----9--6--6-----6--6--6-----6-|4--4-----4--4--4-----4--7--7-----7--7--7-----7-|
A|--7--7-----7--7--7-----7--8--8-----8--8--8-----8-|------------------------5--5-----5--5--5-----5-|
E|-------------------------------------------------|-----------------------------------------------|

    
                                                                                                                                                                                                                                                                                                                                                                                                                                                                                                                                                                                                                                                                                                                                                                                                                                                                                                                                                                                                                                                                                                                                                                                              
E|-------------------------------------------------|-----------------------------------------------|
B|-------------------------------------------------|-----------------------------------------------|
G|-------------------------------------------------|-----------------------------------------------|
D|-------------------------------------------------|-----------------------------------------------|
A|-------------------------------------------------|-----------------------------------------------|
E|--2--2-----2--2--2-----2--2--2-----2--2--2-----2-|2--2-----2--2--2-----2--2--2-----2--2--2-----2-|

    
                                                                                                                                                                                                                                                                                                                                                                                                                                                                                                                                                                                                                                                                                                                                                                                                                                                                                                                                                                                                                                                                                                                                                                                              
E|-------------------------------------------------|-----------------------------------------------|
B|-------------------------------------------------|-----------------------------------------------|
G|-------------------------------------------------|-----------------------------------------------|
D|--(1)(1)---(1)(1)(1)---(1)(4)(4)---(4)(4)(4)---(4)(7)(7)---(7)(7)(7)---(7)(10(10---(10(10(10---(10
A|--3--3-----3--3--3-----3--5--5-----5--5--5-----5-|9--9-----9--9--9-----9--12-12----12-12-12----12|
E|-------------------------------------------------|-----------------------------------------------|

    
                                                                                                                                                                                                                                                                                                                                                                                                                                                                                                                                                                                                                                                                                                                                                                                                                                                                                                                                                                                                                                                                                                                                                                                              
E|-------------------------------------------------|-----------------------------------------------|
B|-------------------------------------------------|-----------------------------------------------|
G|-------------------------------------------------|-----------------------------------------------|
D|--7--7-----7--7--7-----7--7--7-----7--7--7-----7-|3--3-----3--3--3-----3--3--3-----3--3--3-----3-|
A|--4--4-----4--4--4-----4--4--4-----4--4--4-----4-|4--4-----4--4--4-----4--4--4-----4--4--4-----4-|
E|-------------------------------------------------|-----------------------------------------------|

    
                                                                                                                                                                                                                                                                                                                                                                                                                                                                                                                                                                                                 
E|-------------------------|
B|-------------------------|
G|-------------------------|
D|-------------------------|
A|--2--2--2--2--2--2--2--2-|
E|-------------------------|

    
                                                                                                                                                                                                                                                                                                                                                                                                                                                                                                                                                                                                                                                                                                                                                                                                                                                                                                                                                                                                                                                                                                                                                                                              
E|-------------------------|-----------------------|
B|-------------------------|-----------------------|
G|-------------------------|-----------------------|
D|-------------------------|-----------------------|
A|--2--2--2--2--2--2--2--2-|2--2--2--2--2--2--2--2-|
E|-------------------------|-----------------------|

    
                                                                                                                                                                                                                                                                                                                                                                                                                                                                                                                                                                                                                                                                                                                                                                                                                                                                                                                                                                                                                                                                                                                                                                                              
E|-------------------------|------------9----------|
B|-------------------------|------------------12---|
G|-------------------------|-----------------------|
D|-------------------------|------12---------------|
A|--2--2--2--2--2--2--2--2-|-----------------------|
E|-------------------------|7----------------------|

    
                                                                                                                                                                                                                                                                                                                                                                                                                                                                                                                                                                                                                                                                                                                                                                                                                                                                                                                                                                                                                                                                                                                                                                                              
E|--14-------12p10-14-------19|19p15-19-21p15-19----15------------|
B|----------------------------|------------------------19-17-19---|
G|----------------------------|-----------------------------------|
D|----------------------------|-----------------------------------|
A|----------------------------|-----------------------------------|
E|----------------------------|-----------------------------------|

    
                                                                                                                                                                                                                                                                                                                                                                                                                                                                                                                                                                                                                                                                                                                                                                                                                                                                                                                                                                                                                                                                                                                                                                                              
E|----------------------------------|---------------10-14p19-14---------------------|
B|--19-15---------------------------|------------12-------------15------------------|
G|--------18-(1918-16---------------|---------11-------------------16---------------|
D|--------------------17-16---------|------12-------------------------16------------|
A|----------------------------------|9--14-------------------------------17-14/12-16|
E|----------------------------------|-----------------------------------------------|

    
                                                                                                                                                                                                                                                                                                                                                                                                                                                                                                                                                                                                                                                                                                                                                                                                                                                                                                                                                                                                                                                                                                                                                                                              
E|-----------12-17p21-17---------------------|-----------------------|
B|--------14-------------17------------------|-----------------------|
G|-----14-------------------18---------------|-----------------------|
D|--14-------------------------19----------16/14---------------------|
A|--------------------------------19-16/12---|-----------------------|
E|-------------------------------------------|-----------------------|

    
                                                                                                                                                                                                                                                                                                                                                                                                                                                                                                                                                                                                                                                                                                                                                                                                                                                                                                                                                                                                                                                                                                                                                                                              
E|-------------------------|-----------------------|
B|-------------------------|-----------------------|
G|-------------------------|-----------------------|
D|-------------------------|-----------------------|
A|--0--0--0--0--0--0--0--0-|0--0--0--0--0--0--0--0-|
E|-------------------------|-----------------------|

    
                                                                                                                                                                                                                                                                                                                                                                                                                                                                                                                                                                                                                                                                                                                                                                                                                                                                                                                                                                                                                                                                                                                                                                                              
E|-------------------------|-----------------------|
B|-------------------------|-----------------------|
G|-------------------------|-----------------------|
D|-------------------------|-----------------------|
A|--0--0--0--0--0--0--0--0-|0--0--0--0--0--0--0--0-|
E|-------------------------|-----------------------|

    
                                                                                                                                                                                                                                                                                                                                                                                                                                                                                                                                                                                                 
E|-------------------------|
B|-------------------------|
G|-------------------------|
D|--4----------------------|
A|--2----------------------|
E|-------------------------|
tabs and chords, guitar tabs, music transcription, music technology, deep learning, music information retrieval, transcribe into tabs & chords, chordify, music renditions, songsterr, reverbnation, tabulature, bollywood chords, ultimate guitar, yousician, guitar lessons, acoustic guitar, electric guitar, guitar tuner, 911 tabs