Bass Tabs for Shivers

-(/) Slide Up  (\) Slide Down  (h) Hammer On  (p) Pull Off  (b) Bend (r) Release (v) Vibrato (x) Muted

Tabs for Song : 

G|--------------------------------------5--------7--5--------------------------------------------------------------------------------------------
D|-----------------------------3---5/7-----------------7--------------------------3-----------------------------------------------------------8--
A|--5--------------------3--5--------------5--5-----------3--3-----------3-----3-----5--5--5--3--3--1--1--3--3--3--3--3--3--3--3--3--3--3--3-----
E|-----5--5--3--3---3/5-----------------------------------------3--3--5-----5--------------------------------------------------------------------
B|-----------------------------------------------------------------------------------------------------------------------------------------------

G|--------------------------------------
D|--------------------------------------
A|--5--3--1--5--3--1--5--3--1--5--3--1--
E|--------------------------------------
B|--------------------------------------

G|--------------------------------------5--------7--5--------------------------------------------------------------------------------------------
D|-----------------------------3---5/7-----------------7--------------------------3-----------------------------------------------------------8--
A|--5--------------------3--5--------------5--5-----------3--3-----------3-----3-----5--5--5--3--3--1--1--3--3--3--3--3--3--3--3--3--3--3--3-----
E|-----5--5--3--3---3/5-----------------------------------------3--3--5-----5--------------------------------------------------------------------
B|-----------------------------------------------------------------------------------------------------------------------------------------------

G|-----------------------------------------------------------------------------------
D|-----------------------------------------------------------------------------------
A|--5--5--7--5--3--1-----5--5--7--5--3--1-----5--5--7--5--3--1-----5--5--7--5--3--1--
E|-----------------------------------------------------------------------------------
B|-----------------------------------------------------------------------------------

G|-----------------------------------------5--5--------
D|-----------------------------------------------------
A|--5--3--1--5--3--1-----5-----------3--------------3--
E|--------------------------6--5--3--------------3-----
B|-----------------------------------------------------

G|------------5h7--5------------------------------------5h7--5---------------------------------5h7--5------------------------------------5h7--5-----------------------
D|-----5--7-----------7------5/7--5--3-----------5--7-----------7------5/7--5--3--------5--7-----------7------5/7--5--3-----------5--7-----------7------5/7--5--3-----
A|--5--------------------3--------------1-----5--------------------3--------------1--5--------------------3--------------1-----5--------------------3--------------1--
E|--------------------------------------------------------------------------------------------------------------------------------------------------------------------
B|--------------------------------------------------------------------------------------------------------------------------------------------------------------------

G|--------------------------------------5--------7--5--------------------------------------------------------------------------------------------
D|-----------------------------3---5/7-----------------7--------------------------3-----------------------------------------------------------8--
A|--5--------------------3--5--------------5--5-----------3--3-----------3-----3-----5--5--5--3--3--1--1--3--3--3--3--3--3--3--3--3--3--3--3-----
E|-----5--5--3--3---3/5-----------------------------------------3--3--5-----5--------------------------------------------------------------------
B|-----------------------------------------------------------------------------------------------------------------------------------------------

G|--------------------------------------------------------------------------------------------------
D|--------------------------------------------------------------------------------------------------
A|--5--5--------------------5--5--------3--3--------5--5--------------------5--5--------3--3--------
E|--------5--5--1--1--3--3--------5--5--------3--3--------5--5--1--1--3--3--------5--5--------3--3--
B|--------------------------------------------------------------------------------------------------

G|--------------------------------------5--------7--5--------------------------------------------------------------------------------------------
D|-----------------------------3---5/7-----------------7--------------------------3-----------------------------------------------------------8--
A|--5--------------------3--5--------------5--5-----------3--3-----------3-----3-----5--5--5--3--3--1--1--3--3--3--3--3--3--3--3--3--3--3--3-----
E|-----5--5--3--3---3/5-----------------------------------------3--3--5-----5--------------------------------------------------------------------
B|-----------------------------------------------------------------------------------------------------------------------------------------------

G|-----
D|-----
A|--5--
E|-----
B|-----

Paste any tab in acousterr's tab maker and we'll play it !!!
Now supports capo and sound effects for vibrato/pull-off/hammer/bends/mutes etc !!! Checkout help section

tabs and chords, guitar tabs, music transcription, music technology, deep learning, music information retrieval, transcribe into tabs & chords, chordify, music renditions, songsterr, reverbnation, tabulature, bollywood chords, ultimate guitar, yousician, guitar lessons, acoustic guitar, electric guitar, guitar tuner, 911 tabs