Guitar Tabs for Shape Of My Heart - Sting - Intro

(/) Slide Up  (\) Slide Down  (h) Hammer On  (p) Pull Off  (b) Bend (r) Release (v) Vibrato (x) Muted

Tabs for Shape of my Heart - Sting

E|-------------------------------------|-----------------|--------------|
B|--10-------------10----9-----------9-|---7--------7----|---7--------6-|
G|-----------6--------------------6----|---------4-------|---4-----4--4-|
D|-------------------------------------|-----------------|--------------|
A|--9-----9--------------7-----7-------|---5--5----------|---4--4-----4-|
E|-------------------------------------|-----------------|--------------|

e|-------------------------------------------------------|--------------|
B|--10-------------10----9-----------9-----7--------7----|---7--------6-|
G|-----------7--------------------6--------------4-------|---4-----4--4-|
D|-------------------------------------------------------|--------------|
A|--9-----9--------------7-----7-----------5--5----------|---4--4-----4-|
E|-------------------------------------------------------|--------------|

Paste any tab in acousterr's tab maker and we'll play it !!!
Now supports capo and sound effects for vibrato/pull-off/hammer/bends/mutes etc !!! Checkout help section
tabs and chords, guitar tabs, music transcription, music technology, deep learning, music information retrieval, transcribe into tabs & chords, chordify, music renditions, songsterr, reverbnation, tabulature, bollywood chords, ultimate guitar, yousician, guitar lessons, acoustic guitar, electric guitar, guitar tuner, 911 tabs