Ukulele Tabs for Sham Ukulele Intro

A|--0-----1--0--------------0-----1--0--------------
E|--1-----------1--3-----0--1-----------1--3--------
C|--0-----------------------2--------------------2--
G|--2-----------------------2-----------------------


A|--0-----1--0-----0--------------------3-----
E|--0-----------1--------0------1/3-----0-----
C|--0-----------------------------------0-----
G|--2-----------------------------------0-----
tabs and chords, guitar tabs, music transcription, music technology, deep learning, music information retrieval, transcribe into tabs & chords, chordify, music renditions, songsterr, reverbnation, tabulature, bollywood chords, ultimate guitar, yousician, guitar lessons, acoustic guitar, electric guitar, guitar tuner, 911 tabs