Ukulele Tabs for Senorita Ukulele

intro
A|--3-----0-----------3--2--------------3--2--0--2--3-----------------3--2-----------
E|--------------0--------------3-----3--------------------3-----0--------------3-----
C|-----------------------------------------------------------------------------------
G|-----------------------------------------------------------------------------------


A|-----3--2--0-----------3--3--3--------------3--3--3-----
E|--3-----------3--1--------------1--1--1-----------------
C|--------------------------------------------------------
G|--------------------------------------------------------


A|---2/3--3--2--3---2h-3p2------2/3--3--2--3---2h-3p2--------------
E|--------------------------3--------------------------5--3---3/5--
C|-----------------------------------------------------------------
G|-----------------------------------------------------------------


A|--2--3--2--0--2---2/3-----0-----------3--2-----------3--2--0--2-----3-----------------3--2-----------
E|--------------------------------0--------------3--3-----------------------3-----0--------------3-----
C|-----------------------------------------------------------------------------------------------------
G|-----------------------------------------------------------------------------------------------------


A|-----3--2--0-----------3--3--3-----------3--3--3-----
E|--3-----------3--1--------------1--1--1--------------
C|-----------------------------------------------------
G|-----------------------------------------------------


A|---2/3--3--2--3---2h-3p2------2/3--3--2--3---2h-3p2--------------
E|--------------------------3--------------------------5--3---3/5--
C|-----------------------------------------------------------------
G|-----------------------------------------------------------------


A|---5/7--5--7---5h-7p5------5/7--5--7---5h-7p5-----------------
E|-----------------------8-----------------------8--8--7--5-----
C|--------------------------------------------------------------
G|--------------------------------------------------------------


A|--7--5--7---5h-7p5------5/7--5--7---7/8--7--5--------------7--7--7-----
E|--------------------8--------------------------8-----5-----------------
C|-----------------------------------------------------------------------
G|-----------------------------------------------------------------------


A|-----------------5--5--5---3/5--3--2--3--2--0--2--
E|---7/8--7--5--------------------------------------
C|--------------7-----------------------------------
G|--------------------------------------------------


A|--3-----0-----------3--2-----------3--2--0--2--3-----------------3--2-----------
E|--------------0--------------3--3--------------------3-----0--------------3-----
C|--------------------------------------------------------------------------------
G|--------------------------------------------------------------------------------


A|-----3--2--0-----------3--3--3--------------3--3--3-----
E|--3-----------3--1--------------1--1--1-----------------
C|--------------------------------------------------------
G|--------------------------------------------------------


A|---2/3--3--2--3---2h-3p2------2/3--3--2--3---2h-3p2--------------
E|--------------------------3--------------------------5--3---3/5--
C|-----------------------------------------------------------------
G|-----------------------------------------------------------------


tabs and chords, guitar tabs, music transcription, music technology, deep learning, music information retrieval, transcribe into tabs & chords, chordify, music renditions, songsterr, reverbnation, tabulature, bollywood chords, ultimate guitar, yousician, guitar lessons, acoustic guitar, electric guitar, guitar tuner, 911 tabs